Home » J » Jem »

Jem - Maybe I'm Amazed Tabs

Artists:  A B C D E F G H I J K L M N O P Q R S T U V W X Y Z # 

Maybe I'm Amazed Tabs

(ver. 2) Click to play this song!
Jem
Cover by Jem

[Capo on 1st fret]
[Everything in relation to the capo]

[Fingerpicking for verse]

----------x-------    -------------------|
----------x-------    ----------x--------|
-------x-----x---- or ----------x--------|
------------------    -------x-----x-----|
------------------    ----x--------------|
---x--------------    -------------------|

F	  C			G		D[x5423x]
Maybe I'm amazed at the way you love me all the time
F	  C		      G
Maybe I'm afraid of the way I love you
F	  C			G		 D
Maybe I'm amazed at the way you pulled me out of time
F		 C
And hung me on a line
Eb[x6534x]		F[x8756x]	  G
Maybe I'm amazed at the way I really need you

----------------x--|
---------x------x--|
------x-----x---x--|
----------------x--|
----------------x--|
---x------------x--|


[Start strumming here]

A				 A7
Maybe I'm a girl and maybe I'm a lonely girl

Who's in the middle of something
D		 	A
That she doesn't really understand

A				      A7
Maybe I'm a girl and maybe you're the only man

Who could ever help me
D			A
Baby won't you help me understand


[Play verse as fill]

------------------------------------------------------------|
------------------------------------------------------------|
--------5--7--5--7/9--7--5----------------------------------|
---5h7----------------------7--5---7/9--10--9--7------------|
------------------------------------------------------------|
------------------------------------------------------------|

------------------------------------------------------------|
------------------------------------------------------------|
---------5--7--5--7/9--7--5---------------------------------|
----5h7----------------------7--5---7/9--9---5--------------|
------------------------------------------------------------|
------------------------------------------------------------|

------------------------------------------------------------|
------------------------------------------------------------|
---------5--7--5--7/9--7--5---------------------------------|
----5h7----------------------7--5--7/9--10--9--7------------|
------------------------------------------------------------|
------------------------------------------------------------|

------------------------------------------------------------|
------------------------------------------------------------|
------------------------------------------------------------|
-7-7-8-7-5---8/10-10-10-10-10-10-10-10--8--8--7--8--7--5----|
------------------------------------------------------------|
------------------------------------------------------------|


Maybe I'm amazed at the way you're with me all the time
Maybe I'm afraid of the way I leave you
Maybe I'm amazed at the way you help me sing my song
Right me when I'm wrong
Maybe I'm amazed at the way I really need you


[Repeat chorus]
[Repeat last verse]


Hope you like it! :D
            
Submit corrections

↑ Back to top | Tablatures and chords for acoustic guitar and electric guitar, ukulele, drums are parodies/interpretations of the original songs. You may use it for private study, scholarship, research or language learning purposes only