» » »

Jeff The Brotherhood - Shredder Tabs

Artists:  A B C D E F G H I J K L M N O P Q R S T U V W X Y Z # 

Shredder Tabs

(ver. 1) Click to play this song!
Jeff The Brotherhood
 Rating:
4.3/5 (28 votes)

 Shredder lessons Tabs too difficult? Try these video lessons and learn fast
 
                Drop D

[Main Riff] x5
e|------------------------------------------------------------------------|
B|------------------------------------------------------------------------|
G|------------------------------------------------------------------------|
D|--9999999999999999999999--9p7------7p5------5--7--9999999999999---------|
A|--9999999999999999999999------9-7------7-5--5--7--9999999999999---------|
D|--9999999999999999999999--------------------5--7--9999999999999---------|

[Chorus]
e|--------------------------------------------------------------------------------------------|
B|--------------------------------------------------------------------------------------------|
G|--------------------------------------------------------------------------------------------|
D|-333333--555555--333333--555555--3333333--555555--33333333--555555---999999999999-----------|
A|-333333--555555--333333--555555--3333333--555555--33333333--555555---999999999999-----------|
D|-333333--555555--333333--555555--3333333--555555--33333333--555555---999999999999-----------|

[Main Riff] x5
e|------------------------------------------------------------------------|
B|------------------------------------------------------------------------|
G|------------------------------------------------------------------------|
D|--9999999999999999999999--9p7------7p5------5--7--9999999999999---------|
A|--9999999999999999999999------9-7------7-5--5--7--9999999999999---------|
D|--9999999999999999999999--------------------5--7--9999999999999---------|

[Chorus]
e|--------------------------------------------------------------------------------------------|
B|--------------------------------------------------------------------------------------------|
G|--------------------------------------------------------------------------------------------|
D|-333333--555555--333333--555555--3333333--555555--33333333--555555---999999999999-----------|
A|-333333--555555--333333--555555--3333333--555555--33333333--555555---999999999999-----------|
D|-333333--555555--333333--555555--3333333--555555--33333333--555555---999999999999-----------|

[Interlude]
e|-----------------------------------------------------------|
B|-----------------------------------------------------------|
G|-----------------------------------------------------------|
D|-9999999999999999999---55555--77777---999999999999---------|
A|-9999999999999999999---55555--77777---999999999999---------|
D|-9999999999999999999---55555--77777---999999999999---------|

[Interlude] x2
e|-----------------------------------------------------------|
B|-----------------------------------------------------------|
G|-----------------------------------------------------------|
D|--9999999999999--1212--77--99--77--5--7--9999999999--------|
A|--9999999999999--1212--77--99--77--5--7--9999999999--------|
D|--9999999999999--1212--77--99--77--5--7--9999999999--------|

[Main Riff] x2
e|------------------------------------------------------------------------|
B|------------------------------------------------------------------------|
G|------------------------------------------------------------------------|
D|--9999999999999999999999--9p7------7p5------5--7--9999999999999---------|
A|--9999999999999999999999------9-7------7-5--5--7--9999999999999---------|
D|--9999999999999999999999--------------------5--7--9999999999999---------|

            
Submit corrections


        Shredder lessons Hard to play? Try these video lessons and learn fast Shredder lessons
        
↑ Back to top | Tablatures and chords for acoustic guitar and electric guitar, ukulele, drums are parodies/interpretations of the original songs. You may use it for private study, scholarship, research or language learning purposes only