» » »

Jeff Buckley - Opened Once Tabs

Artists:  A B C D E F G H I J K L M N O P Q R S T U V W X Y Z # 

Opened Once Tabs

(ver. 1) Click to play this song!
Jeff Buckley
 Rating:
4.3/5 (27 votes)

 Opened Once lessons Tabs too difficult? Try these video lessons and learn fast
 
                [Intro]

e|----0------|-------------------|-------|-------------|----|-------------|
B|------0---0|0-0-0-0-0-0-0-0-0-0|----0--|-------------|----|-------------|
G|--2-------0|0-0-0-0-0-0-0-0-0-0|------0|-------------|2--2|-------------|
D|3---------2|2-2-2-2-2-2-2-2-2-2|--2----|--2-----0----|2--2|--2-----0----|
A|----------3|3-3-3-3-3-3-3-3-3-3|3------|3---3-2---2-0|0--0|3---3-2---2-0|
E|-----------|-------------------|-------|-------------|----|-------------|

[Verse 1]

e|----0----0-0-0-0|0-0-0-0-0-0-0-0-0|---------|-------------|----|-----------|
B|------0--0-0-0-0|0-0-0-0-0-0-0-0-0|----0----|-------------|----|-----------|
G|--2------2-2-2-2|2-2-2-2-2-2-2-2-2|------0-0|-------------|2--2|-----------|
D|3--------3-3-3-3|3-3-3-3-3-3-3-3-3|--2------|--2-----0----|2--2|--2-0---0--|
A|----------------|-----------------|3--------|3---3-2---2-0|0--0|3-----2---2|
E|----------------|-----------------|---------|-------------|----|-----------|

e|----0----0-0-0-0|0-0-0-0-0-0-0-0-0|---------|-------------|----|-------------|
B|------0--0-0-0-0|0-0-0-0-0-0-0-0-0|----0---0|-------------|----|-------------|
G|--2------2-2-2-2|2-2-2-2-2-2-2-2-2|------0-0|-------------|2--2|-------------|
D|3--------3-3-3-3|3-3-3-3-3-3-3-3-3|--2-----2|--2-----0----|2--2|--2-0---0----|
A|----------------|-----------------|3-------3|3---3-2---2-0|0--0|3-----2---2p0|
E|----------------|-----------------|---------|-------------|----|-------------|

[Chorus 1]

e|---------------|-------------------|----0-0--0-0-0--0-0-0|-------------------------|
B|------0-0-0---0|-0-0-0-0-0-0--0-0-0|------0--0-0-0--0-0-0|---0--0-0-0--0-0-0--0-0-0|
G|----4---4-4---4|/8-8-8-8-8-8--8-8-8|------9--9-9-9--9-9-9|\4-4--4-4-4--4-4-4--4-4-4|
D|--2-----2-2---2|/6-6-6-6-6-6--6-6-6|--7---7--7-7-7--7-7-7|---2--2-2-2--2-2-2--2-2-2|
A|4-------4-4-4-4|/7-7-7-7-7-7--7-7-7|9-----9--9-9-9--9-9-9|---4--4-4-4--4-4-4--4-4-4|
E|---------------|-------------------|---------------------|-------------------------|


e|----------------|-------------------|----0-0--0-0-0--0-0-0|----------------------------|
B|----0-0-0--0-0-0|-0-0-0-0-0-0--0-0-0|----0-0--0-0-0--0-0-0|---0--0-0-0--0-0-0----------|
G|----4-4-4--4-4-4|/8-8-8-8-8-8--8-8-8|----9-9--9-9-9--9-9-9|\4-4--4-4-4--2-2-2--1-------|
D|--2-2-2-2--2-2-2|/6-6-6-6-6-6--6-6-6|--7-7-7--7-7-7--7-7-7|---2--2-2-2--2-2-2-----2-2/4|
A|4---4-4-4--4-4-4|/7-7-7-7-7-7--7-7-7|9---9-9--9-9-9--9-9-9|---4--4-4-4--4-4-4----------|
E|----------------|-------------------|---------------------|----------------------------|

[Verse 2]

e|----0----0-0-0-0|0-0-0-0-0-0-0-0-0|---------|-------------|----|-----------|
B|------0--0-0-0-0|0-0-0-0-0-0-0-0-0|----0----|-------------|----|-----------|
G|--2------2-2-2-2|2-2-2-2-2-2-2-2-2|------0-0|-------------|2--2|-----------|
D|3--------3-3-3-3|3-3-3-3-3-3-3-3-3|--2------|--2-----0----|2--2|--2-0---0--|
A|----------------|-----------------|3--------|3---3-2---2-0|0--0|3-----2---2|
E|----------------|-----------------|---------|-------------|----|-----------|

e|----0----0-0-0-0|0-0-0-0-0-0-0-0-0|----------------|---------------|-----------------|---------------|
B|------0--0-0-0-0|0-0-0-0-0-0-0-0-0|------0--0-0-0-0|0-0-0-0-0-0-0-0|-----5----5-5-5-5|5-5-5-5-5-5-5-5|
G|--2------2-2-2-2|2-2-2-2-2-2-2-2-2|----6----6-6-6-6|6-6-6-6-6-6-6-6|-------5--5-5-5-5|5-5-5-5-5-5-5-5|
D|3--------3-3-3-3|3-3-3-3-3-3-3-3-3|--4------4-4-4-4|4-4-4-4-4-4-4-4|---7------7-7-7-7|7-7-7-7-7-7-7-7|
A|----------------|-----------------|5--------5-5-5-5|5-5-5-5-5-5-5-5|/8--------8-8-8-8|8-8-8-8-8-8-8-8|
E|----------------|-----------------|----------------|---------------|-----------------|---------------|

[Chorus 2]

e|----------------|-------------------|----0-0--0-0-0--0-0-0|----------------------------|
B|----0-0-0--0-0-0|-0-0-0-0-0-0--0-0-0|----0-0--0-0-0--0-0-0|---0--0-0-0--0-0-0----------|
G|----4-4-4--4-4-4|/8-8-8-8-8-8--8-8-8|----9-9--9-9-9--9-9-9|\4-4--4-4-4--2-2-2--1-------|
D|--2-2-2-2--2-2-2|/6-6-6-6-6-6--6-6-6|--7-7-7--7-7-7--7-7-7|---2--2-2-2--2-2-2-----2-2/4|
A|4---4-4-4--4-4-4|/7-7-7-7-7-7--7-7-7|9---9-9--9-9-9--9-9-9|---4--4-4-4--4-4-4----------|
E|----------------|-------------------|---------------------|----------------------------|

e|----------------|-------------------|----0-0--0-0-0--0-0-0|----------------------------|
B|----0-0-0--0-0-0|-0-0-0-0-0-0--0-0-0|----0-0--0-0-0--0-0-0|---0--0-0-0--0-0-0----------|
G|----4-4-4--4-4-4|/8-8-8-8-8-8--8-8-8|----9-9--9-9-9--9-9-9|\4-4--4-4-4--2-2-2--1-------|
D|--2-2-2-2--2-2-2|/6-6-6-6-6-6--6-6-6|--7-7-7--7-7-7--7-7-7|---2--2-2-2--2-2-2-----2-2/4|
A|4---4-4-4--4-4-4|/7-7-7-7-7-7--7-7-7|9---9-9--9-9-9--9-9-9|---4--4-4-4--4-4-4----------|
E|----------------|-------------------|---------------------|----------------------------|

e|----------------|-------------------|----0-0--0-0-0--0-0-0|----------------------------|
B|----0-0-0--0-0-0|-0-0-0-0-0-0--0-0-0|----0-0--0-0-0--0-0-0|---0--0-0-0--0-0-0----------|
G|----4-4-4--4-4-4|/8-8-8-8-8-8--8-8-8|----9-9--9-9-9--9-9-9|\4-4--4-4-4--2-2-2--1-------|
D|--2-2-2-2--2-2-2|/6-6-6-6-6-6--6-6-6|--7-7-7--7-7-7--7-7-7|---2--2-2-2--2-2-2-----2-2/4|
A|4---4-4-4--4-4-4|/7-7-7-7-7-7--7-7-7|9---9-9--9-9-9--9-9-9|---4--4-4-4--4-4-4----------|
E|----------------|-------------------|---------------------|----------------------------|

e|----------------|-------------------|----0-0--0-0-0--0-0-0|---------------------------|
B|----0-0-0--0-0-0|-0-0-0-0-0-0--0-0-0|----0-0--0-0-0--0-0-0|---0--0-0-0-0-0-0-0-0-0-0-0|
G|----4-4-4--4-4-4|/8-8-8-8-8-8--8-8-8|----9-9--9-9-9--9-9-9|\4-4--4-4-4-4-4-4-4-4-4-4-4|
D|--2-2-2-2--2-2-2|/6-6-6-6-6-6--6-6-6|--7-7-7--7-7-7--7-7-7|---2--2-2-2-2-2-2-2-2-2-2-2|
A|4---4-4-4--4-4-4|/7-7-7-7-7-7--7-7-7|9---9-9--9-9-9--9-9-9|---4--4-4-4-4-4-4-4-4-4-4-4|
E|----------------|-------------------|---------------------|---------------------------|

[Outro]

e|----------------|-------------|----|-------------|----0----0-0-0-0|0-0-0-0-0-0-0-0-0|
B|------0-0--0-0-0|-------------|----|-------------|------0--0-0-0-0|0-0-0-0-0-0-0-0-0|
G|----4---4--4-4-4|-------------|4--4|-------------|--2------2-2-2-2|2-2-2-2-2-2-2-2-2|
D|--2-----2--2-2-2|--2-----0----|2--2|--2-----0----|3--------3-3-3-3|3-3-3-3-3-3-3-3-3|
A|4-------4--4-4-4|4---4-2---2-0|0--0|4---4-2---2-0|----------------|-----------------|
E|----------------|-------------|----|-------------|----------------|-----------------|

            
Submit corrections


        Opened Once lessons Hard to play? Try these video lessons and learn fast Opened Once lessons
        
↑ Back to top | Tablatures and chords for acoustic guitar and electric guitar, ukulele, drums are parodies/interpretations of the original songs. You may use it for private study, scholarship, research or language learning purposes only