» » »

Jeff Buckley - Hallelujah Live At Bearsville Tabs

Artists:  A B C D E F G H I J K L M N O P Q R S T U V W X Y Z # 

Hallelujah Live At Bearsville Tabs

(ver. 1) Click to play this song!
Jeff Buckley
 Rating:
4.3/5 (15 votes)

 Hallelujah Live At Bearsville  lessons Tabs too difficult? Try these video lessons and learn fast
 
                 G C/G Gmaj7no3 G
e|---------------------------------------------------2------2-----------|
B|--0----0-----0-1h0-------------0h1-1-------------3-----3--------------|
G|--0----0-0-0-------0-------0------------2------0------------0-----0---|
D|---------------------2---2-------------------4------------------0-----|
A|----------------------------------------------------------------------|
E|--3----3---------------3-----3-----------------------3--------3-------|

 C Em7 Em
e|--------------0-3---0-3---0-3---0-3-----------0----7---5-3-2-5---2----|
B|------------1-1-1---1-1-1---1-1-1-1----3--0---0----------------3---2--|
G|--0--0--0---0-0---------------0-0------0--0---0-----------------------|
D|--5--7--9-----------------2------------2--2---2-----------------------|
A|------------3-----3-----------3--------2--2---------------------------|
E|--3--5--7---------------------------------0---------------------------|

 A A7 C C
e|--0---------------------------3----2----------------3-----------------|
B|---------2-----2-----2------1-----------3-----0--1------1----1--------|
G|----2------2-----0------------0----0-------2--------------0----0------|
D|-------------2-----2--------2-----------0-------------2---------------|
A|-------0----------------2-3----------------0--2--3----------3----3----|
E|----------------------------------------------------------------------|

Cmaj7/B Bm#5 D/F# B11/E Em
e|----------------------------------2-----------2-------------0---------|
B|--1-----3-----3-----3-------3-------3-------------0-----------0---3---|
G|----0-----0-----0-----0---0-----------2-----2---2---2-----0-----0---0-|
D|------------------------0-------0-------4-1-------------2-------------|
A|------2-----2-----2-----------0---------------------------------------|
E|------------------------------------------------------0---------------|

 C Em C
e|--------------0---------0-----------0-----------0----------0----------|
B|----0---1-----1---1-------1---0-------0---0-------0---1------1--------|
G|----------0-----0---0---0---0---0---0---0---0---0---0---0------0------|
D|--2---------2---------2-----------2-----------2-----------2--------2--|
A|----2---3---------3-----------------------2-----------3---------------|
E|------------------------------0----------------------------------2----|

 D
e|----0-----------3-----0h2-------2h3--|
B|------1-----------3---3---3-----3----|
G|--0-----------0-----0-2-----2--------|
D|------------0-----------------0------|
A|--------0----------------------------|
E|----------3--------------------------|            
Submit corrections


        Hallelujah Live At Bearsville  lessons Hard to play? Try these video lessons and learn fast Hallelujah Live At Bearsville  lessons
        
↑ Back to top | Tablatures and chords for acoustic guitar and electric guitar, ukulele, drums are parodies/interpretations of the original songs. You may use it for private study, scholarship, research or language learning purposes only