» » »

Jeff Buckley - Dream Of You And I Tabs

Artists:  A B C D E F G H I J K L M N O P Q R S T U V W X Y Z # 

Dream Of You And I Tabs

(ver. 1) Click to play this song!
Jeff Buckley
 Rating:
4.3/5 (19 votes)

 Dream Of You And I  lessons Tabs too difficult? Try these video lessons and learn fast
 
                0:00
"This is uh, based on some music that I heard in a dream...I saw in a dream. Called, uh..
It's going to be called 'You and I' (ouch) cuz thats what the people in the dream were singing."

0:27
   Csus2/E
e|----3---3---3---3---3---3---3---3---3---3---3---3--------------------------|
B|---------------------------------------------------------------------------|
G|--------------0-------0---------------0-------0----------------------------|
D|----------0-------0---------------0-------0--------------------------------|
A|------3-----------------------3--------------------------------------------|
E|--0-----------------------0------------------------------------------------|
   Em7 (1)
e|----3---3---3---3---3---3---3---3---3---3---3---3--------------------------|
B|---------------------------------------------------------------------------|
G|--------------0-------0---------------0-------0----------------------------|
D|----------0-------0---------------0-------0--------------------------------|
A|------2-----------------------2--------------------------------------------|
E|--0-----------------------0------------------------------------------------|
   Em7 (2)
e|----3---3---3---3---3---3---3---3---3---3---3---3--------------------------|
B|------------------3-----------------------3--------------------------------|
G|----------0-----------0-----------0-----------0----------------------------|
D|------2-------2---------------2-------2------------------------------------|
A|--2-----------------------2------------------------------------------------|
E|---------------------------------------------------------------------------|
   Am7sus4
e|----3---3---3---3---3---3---3---3---3---3---3---3--------------------------|
B|------------------3-----------------------3--------------------------------|
G|----------2-----------2-----------2-----------2----------------------------|
D|------2-------2---------------2-------2------------------------------------|
A|--0-----------------------0------------------------------------------------|
E|---------------------------------------------------------------------------|

Repeat this whole section three more times


1:28
   Gmaj7                 G6 D                  Dsus2 
e|--2--2-2-2-2--2--2-2-2-0--2-2-2-2-2--2--2-2-2-0----------------------------|
B|--3--3-3-3-3--3--3-3-3-3--3-3-3-3-3--3--3-3-3-3----------------------------|
G|--0--0-0-0-0--0--0-0-0-0--2-2-2-2-2--2--2-2-2-2----------------------------|
D|--0--0-0-0-0--0--0-0-0-0--0-0-0-0-0--0--0-0-0-0----------------------------|
A|---------------------------------------------------------------------------|
E|--3--3-3-3-3--3--3-3-3-3---------------------------------------------------|

Repeat this section three more times


1:44
   Bm       Bm/A    Gmaj7                      Gmaj7
e|-----------------------------------------------0---------------------------|
B|-----------------------------------------------0---------------------------|
G|------0-------0-------0-then strums this chord-0---------------------------|
D|------4-------4-------4------------------------4---------------------------|
A|----5---5---5---5---5--------------------------5---------------------------|
E|--7-------5-------3----------------------------3---------------------------|
   
   Bm       Bm/A    Gmaj7                      Gmaj7
e|-----------------------------------------------0---------------------------|
B|-----------------------------------------------0---------------------------|
G|------0-------0-------0-then strums this chord-0---------------------------|
D|------4-------4-------4------------------------4---------------------------|
A|----5---5---5---5---5--------------------------5---------------------------|
E|--7-------5-------3----------------------------3---------------------------|

    Bm         Bm/A       Gmaj7 
e|---------------------------------------------------------------------------|
B|---------------------------------------------------------------------------|
G|------0----------0----------0------------------------------------------------------|
D|------4----------4----------4------------------------------------------------------|
A|----5----------5----------5--------------------------------------------------------|
E|--7----------5----------3----------------------------------------------------------|
   "You and I, you and I, you and I"

   Bm     A     G (these are implied chords he doesn't play)
e|---------------------------------------------------------------------------|
B|--3------2------0----------------------------------------------------------|
G|--0------2------0----------------------------------------------------------|
D|--4------2------0----------------------------------------------------------|
A|--2------4-----------------------------------------------------------------|
E|----------------3----------------------------------------------------------|
  "All.....For....You"
            
Submit corrections


        Dream Of You And I  lessons Hard to play? Try these video lessons and learn fast Dream Of You And I  lessons
        
↑ Back to top | Tablatures and chords for acoustic guitar and electric guitar, ukulele, drums are parodies/interpretations of the original songs. You may use it for private study, scholarship, research or language learning purposes only