Home » J » Jed Madela »

Jed Madela - Only Reminds Me Of You Tabs

Artists:  A B C D E F G H I J K L M N O P Q R S T U V W X Y Z # 

Only Reminds Me Of You Tabs

(ver. 1) Click to play this song!
Jed Madela
This song is a good song straight from Jed Madela's album called Song Rediscovered. I'm
at tabbing so I apologize for the errors. I'd like to thank Ms. Cleng de Guzman for
me with the missing chord in the chorus. I once used the D chord for the last chord of 
song but it was better when Cleng corrected me with using a G chord.
I tried tabbing the intro and post chorus. The tabs missing are the ones for the verse,
and outtro. For those who would want to improve the song, please do so. Thanks

ONLY REMINDS ME OF YOU
Album:Songs Rediscovered

Intro:

---------------------------------------------------------------|
-5/6-7-9-9--7-6-4---8/9-9-7-6-2---1/2-4-6-4-2-1-2--------------|
---------------------------------------------------------------|
---------------------------------------------------------------|
---------------------------------------------------------------|
---------------------------------------------------------------|


---------------------------------------------------------------|
-5/6-7-9-9--7-6-4---8/9-9-7-6-2---1/2-3/4-5/6-3/4-1/2----------|
---------------------------------------------------------------|
---------------------------------------------------------------|
---------------------------------------------------------------|
---------------------------------------------------------------|

(let the last pluck ring)

Guitar 1 for Verse 1 & 2:

---------0---------3-------------------------------|
-------1---------3---------1---1---x-----3----x----|
-----0---------0---------2-----2---x---------------|
---2---------0---------3---------------------------|
-3---------2---------3-------0-----x---2------x----|
---------------------------------------------------|


Guitar 2 for Verse 1:
C	   G
I see you, beside me
      F
It's only a dream
Am		G
A Vision of what used to be
C	        G
The laughter, the sorrow
F
Pictures in time
Am	G
Fading to memories

pre-chorus:
C	      G		F
How could I ever let you go?
            Am	     G
Is it too late to let you know?

Chorus:
C	G
I try to run from your side
        F
But each place I hide
     Am	  G	        C
   only reminds me of you
	      G
When i turn out all the lights
F
Even the night
     Am	 G	       C
   only reminds me of you


After chorus:
-------------------------------------|
----7/8—8/6--------------------------|
--5-------------10-------------------|
-------------------------------------|
-------------------------------------|
-------------------------------------|


Verse 2: (use verse 1 chords)
I needed my freedom
That’s what I thought
But I was a fool to believe
My heart lied when you cried
Rivers of tears
But I was too blind to see

pre-chorus:
Everything we’ve been through before
Now it means so much more

Chorus: C G F Am G
 play these chords: C G F Am G after chorus

Only you...
Bridge:
C		G
So come back to me
		F
I'm down on my knees
	        Am-G
Girl can’t you see...

C	       G		F
How could I ever let you go
		Am   G 		C
Is it too late to late to let you know

Chorus: C G F Am G
   Am     G                C
..only reminds me of you..

-=end=-
            
Submit corrections

↑ Back to top | Tablatures and chords for acoustic guitar and electric guitar, ukulele, drums are parodies/interpretations of the original songs. You may use it for private study, scholarship, research or language learning purposes only