Home » J » Jed Madela »

Jed Madela - Can't Cry Hard Enough Tabs

Artists:  A B C D E F G H I J K L M N O P Q R S T U V W X Y Z # 

Can't Cry Hard Enough Tabs

(ver. 1) Click to play this song!
Jed Madela
Wanna sAy Hi 2 Miss Bea FAjardo!...Its a nice song, i made Ds tab for her!


Intro:

e|---3--------0---0----|
B|---1--------1---1----|
G|----------0-----0----|
D|-----2-3------3-2----|
A|-3--------------3----|
E|---------------------|

Verse 1:
I'm gonna live my life
Like every day's the last          
Without a simple goodbye

e|-----0-------0---|-----0-------0---|-----0-------0---|-----0-------0---|-----1-------1------|
B|-----1-------1---|-----1-------1---|-----1-------1---|-----1-------1---|-----1-------1------|
G|---0---0---0-----|---0---0---0---0-|---0---0---0-----|---0---0---0---0-|---2---2---2--------|
D|-----------------|-----------------|-----------------|-----------------|--------------------|
A|-3-------3-----3-|-2-------2-------|-0-------0-----0-|-----------------|--------------------|
E|-----------------|-----------------|-----------------|-3-------3-------|-1-------1------1---|


  It all goes by so fast

e|-----0-------0-------0-------0-------|
B|-----0-------0-------1-------1---1---|
G|---0---0---0---0---0-------0-----0---|
D|-----------------------2-3-----3-2---|
A|-----------------3-------------------|
E|-0-------3---------------------------|

Verse 2:
And now that you're gone
I can't cry hard enough             
No I can't cry hard enough

e|-----0-------0---|-----0-------0---|-----0-------0---|-----0-------0---|-----1-------1------|
B|-----1-------1---|-----1-------1---|-----1-------1---|-----1-------1---|-----1-------1------|
G|---0---0---0-----|---0---0---0---0-|---0---0---0-----|---0---0---0---0-|---2---2---2--------|
D|-----------------|-----------------|-----------------|-----------------|--------------------|
A|-3-------3-----3-|-2-------2-------|-0-------0-----0-|-----------------|--------------------|
E|-----------------|-----------------|-----------------|-3-------3-------|-1-------1------1---|


    For you to hear me know

e|-----0-------0-------0-------0---0---|
B|-----0-------0-------1-------1---1---|
G|---0---0---0---0---0-------0-----0---|
D|-----------------------2-3-----3-2---|
A|-----------------3---------------3---|
E|-0-------3---------------------------|

Verse 3:
Gonna open my eyes
And see for the first time         
 I've let go of you like

e|-----0-------0---|-----0-------0---|-----0-------0---|-----0-------0---|-----1-------1------|
B|-----1-------1---|-----1-------1---|-----1-------1---|-----1-------1---|-----1-------1------|
G|---0---0---0-----|---0---0---0---0-|---0---0---0-----|---0---0---0---0-|---2---2---2--------|
D|-----------------|-----------------|-----------------|-----------------|--------------------|
A|-3-------3-----3-|-2-------2-------|-0-------0-----0-|-----------------|--------------------|
E|-----------------|-----------------|-----------------|-3-------3-------|-1-------1------1---|


   A child letting go of his kite

e|-----0-------0-------0-------0---0---|
B|-----0-------0-------1-------1---1---|
G|---0---0---0---0---0-------0-----0---|
D|-----------------------2-3-----3-2---|
A|-----------------3---------------3---|
E|-0-------3---------------------------|


That's pretty much it for the verse.  The chorus is done with chords.

It goes Verse 1, Ver 2, Ver 3, Chorus, Ver 4, Ver 2, Chorus end.

Verse 1:
I'm gonna live my life
Like every day's the last
Without a sim-ple good-by
It all goes by so fast

Verse 2:
And now that you're gone
I can't cry hard enough
No I can't cry hard enough
For you to hear me know

Verse 3:
Gonna open my eyes
And see for the first time
I've let go of you like
A child letting go of his kite

Chorus:
         Am              G                
There it goes  up in the sky

         Am               A#                
There it goes  beyond the clouds

              C          G               Am
For no reason why--------y   I can't cry hard enough

C                  F            Em            G       C   (CaddD)   
....No I can't cry hard enough--   for you to hear me now


Verse 4:
Gonna look back in vain
And see you standing there
When all that remains
Is just an empty chair





Verse 4:
Gonna look back in vain


                     And see you standing there          When all that remains

e|-----0-------0---|-----0-------0---|-----0-------0---|-----0-------0---|-----1-------1------|
B|-----1-------1---|-----1-------1---|-----1-------1---|-----1-------1---|-----1-------1------|
G|---0---0---0-----|---0---0---0---0-|---0---0---0-----|---0---0---0---0-|---2---2---2--------|
D|-----------------|-----------------|-----------------|-----------------|--------------------|
A|-3-------3-----3-|-2-------2-------|-0-------0-----0-|-----------------|--------------------|
E|-----------------|-----------------|-----------------|-3-------3-------|-1-------1------1---|



   Is just an empty chair
 
e|-----0-------0-------0-------0-------|
B|-----0-------0-------1-------1---1---|
G|---0---0---0---0---0-------0-----0---|
D|-----------------------2-3-----3-2---|
A|-----------------3-------------------|
E|-0-------3---------------------------|
            
Submit corrections

↑ Back to top | Tablatures and chords for acoustic guitar and electric guitar, ukulele, drums are parodies/interpretations of the original songs. You may use it for private study, scholarship, research or language learning purposes only