Home » J » Jedi Mind Tricks »

Jedi Mind Tricks - Speech Cobras Bass

Artists:  A B C D E F G H I J K L M N O P Q R S T U V W X Y Z # 

Speech Cobras Bass

(ver. 1) Click to play this song!
Jedi Mind Tricks
 Rating:
4.8/5 (20 votes)
                Tuning: Standard

#1
G|---------------|
D|-----5-7-------|
A|-3-5-----3-5-2-|
E|---------------|

#2
G|---------------|
D|-----5-7-------|
A|-3-5---------2-|
E|---------------|
¨            
Submit corrections

↑ Back to top | Tablatures and chords for acoustic guitar and electric guitar, ukulele, drums are parodies/interpretations of the original songs. You may use it for private study, scholarship, research or language learning purposes only