Home » J » Jay Sean »

Jay Sean - Do You Remember Tabs

Artists:  A B C D E F G H I J K L M N O P Q R S T U V W X Y Z # 

Do You Remember Tabs

(ver. 1) Click to play this song!
Jay Sean
(Intro)
-------------------------------------------------------------------------------
                        DO YOU REMEMBER (INTRO) - Jay Sean
-------------------------------------------------------------------------------
Last Updated: August 8th 2010

Tuning: Standard EADGBE

(x) = mute/pause

Capo: 2

Only play the strings shown. Just use your thumb + index + middle finger or 2nd to 4th fingers.

Chords in order of the notes played:
A [mute] A E A A E [mute] E A E A Bm [mute] Bm A Bm A Bm [mute] A E A A [repeat]

e|--(x)-------0---(x)-----------(x)-------0-2-(x)-------0--------------------|
B|2-(x)-2-0-2-2-0-(x)-0---0-2-3-(x)-3-2-3-2-3-(x)-2-0-2-2--------------------|
G|2-(x)-2-1-2-2-1-(x)-1-2-1-2-4-(x)-4-2-4-2-4-(x)-2-1-2-2--------------------| x2
D|2-(x)-2-2-2---2-(x)-2-2-2-2-4-(x)-4-2-4-----(x)-2-2-2----------------------|
A|--(x)-----------(x)---0-------(x)-----------(x)----------------------------|
E|--(x)-----------(x)-----------(x)-----------(x)----------------------------|

No capo

e|--(x)-------2---(x)-----------(x)-------2-4-(x)-------2--------------------|
B|4-(x)-4-2-4-4-2-(x)-2---2-4-5-(x)-5-4-5-4-5-(x)-4-2-4-4--------------------|
G|4-(x)-4-3-4-4-3-(x)-3-4-3-4-6-(x)-6-4-6-4-6-(x)-4-3-4-4--------------------| x2
D|4-(x)-4-4-4---4-(x)-4-4-4-4-6-(x)-6-4-6-----(x)-4-4-4----------------------|
A|--(x)-----------(x)---2-------(x)-----------(x)----------------------------|
E|--(x)-----------(x)-----------(x)-----------(x)----------------------------|
            
Submit corrections

↑ Back to top | Tablatures and chords for acoustic guitar and electric guitar, ukulele, drums are parodies/interpretations of the original songs. You may use it for private study, scholarship, research or language learning purposes only