Home » J » Jay-r Siaboc »

Jay-r Siaboc - Hiling Tabs

Artists:  A B C D E F G H I J K L M N O P Q R S T U V W X Y Z # 

Hiling Tabs

(ver. 2) Click to play this song!
Jay-r Siaboc

Intro: G-D-Em-C
e|--7h8-7--8-7-10-7~--7-8-10-8-7----------7---------|
B|-------------------------------8~--8-10---10-8----|
G|-----------------------------------------------9--|
D|--------------------------------------------------|
A|--------------------------------------------------|
E|--------------------------------------------------|

Verse:
G              D          Em
 Nag-iisang pag-ibig ang nais makamit 
          C
 Yun ay ikaw 
G              D       Em
 Nag-iisang pangako na di magbabago 
          C
 Para sa‘yo 


Refrain: 
D       Em             C       C9 
 San ka man ay sana’y maalala mo 
D       Em           C         D
 Kailan man asahang di magkalayo 

Chorus: 
G         Em              C         D   
 Tanging ikaw lamang ang aking iibigin 
G         Em              C            D      
 Walang ibang hiling kundi ang yakap mo’t halik 


Interlude: G-D-Em-C
e|--7h8-7--8-7-10-7~--7-8-10-8-7----------7---------|
B|-------------------------------8~--8-10---10-8----|
G|-----------------------------------------------9--|
D|--------------------------------------------------|
A|--------------------------------------------------|
E|--------------------------------------------------|

Verse:
G             D          Em
 Hindi malilimutan, mga araw natin 
               C
 Kay sarap balikan 
G               D        Em
 At lagi mong isipin, walang ibang mahal 
         C
 Kundi ikaw 


Refrain:
D          Em             C       C9
 Malayo ka man ay sana’y maalala mo 
D        Em           C         D
 Kailan man pangako, di magkalayo 


Chorus: 
G         Em              C         D   
 Tanging ikaw lamang ang aking iibigin 
G         Em              C            D      
 Walang ibang hiling kundi ang yakap mo’t halik 


Adlib: G-D-Em-C


Bridge:
D       Em             C       C9 
 San ka man ay sana’y maalala mo 
D       Em           C         D
 Kailan man asahang di magkalayo 


Chorus: 
G         Em              C         D   
 Tanging ikaw lamang ang aking iibigin 
G         Em              C            D      
 Walang ibang hiling kundi ang yakap mo’t halik 
G         Em              C         D   
 Tanging ikaw lamang ang aking iibigin 
G         Em              C            D      
 Walang ibang hiling kundi ang yakap mo’t halik 


Outro:
G         Em              C         D   
 Tanging ikaw lamang ang aking iibigin
            
Submit corrections

↑ Back to top | Tablatures and chords for acoustic guitar and electric guitar, ukulele, drums are parodies/interpretations of the original songs. You may use it for private study, scholarship, research or language learning purposes only