» » »

Jaws - Nye Tabs

Artists:  A B C D E F G H I J K L M N O P Q R S T U V W X Y Z # 

Nye Tabs

(ver. 1) Click to play this song!
Jaws
 Rating:
4/5 (4 votes)

 Nye  lessons Tabs too difficult? Try these video lessons and learn fast
 
                e|---------------------------------------------------------------------------|
B|--15-15-15-12-12-12-12-15-15-15-12-12-12/10--------------------------------|
G|---------------------------------------------------------------------------|
D|---------------------------------------------------------------------------| X6
A|---------------------------------------------------------------------------|
E|---------------------------------------------------------------------------|

                                                 (not sure how many)
e|-----------------------------------------------15-15-15-15-15--------------|
B|--15-15-15-12-12-12-15-15-15-12-12-12/10-10-10-----------------------------|
G|---------------------------------------------------------------------------|
D|---------------------------------------------------------------------------|
A|---------------------------------------------------------------------------|
E|---------------------------------------------------------------------------|

e|---------------------------------------------------------------------------|
B|-12h13p12-------15-12h13p12-------15---------------------------------------|
G|----------14-12-------------14-12------------------------------------------|
D|---------------------------------------------------------------------------|
A|---------------------------------------------------------------------------|
E|---------------------------------------------------------------------------|

e|---------------------------------------------------------------------------|
B|-12h13p12-12h13p12-------15-12h13p12-------15-12h13p12-12------------------|
G|-------------------14-12-------------14-12---------------------------------|
D|---------------------------------------------------------------------------|
A|---------------------------------------------------------------------------|
E|---------------------------------------------------------------------------|

e|---------------------------------------------------------------------------|
B|---------------------------------------------------------------------------|
G|---------------------------------------------------------------------------|
D|---------------------------------------------------------------------------|
A|---------------------------------------------------------------------------|
E|----7/5---5\10---10/7------------------------------------------------------|
            
Submit corrections


        Nye  lessons Hard to play? Try these video lessons and learn fast Nye  lessons
        
↑ Back to top | Tablatures and chords for acoustic guitar and electric guitar, ukulele, drums are parodies/interpretations of the original songs. You may use it for private study, scholarship, research or language learning purposes only