» » »

Jaws - 17 Tabs

Artists:  A B C D E F G H I J K L M N O P Q R S T U V W X Y Z # 

17 Tabs

(ver. 1) Click to play this song!
Jaws
 Rating:
4.3/5 (20 votes)

 17  lessons Tabs too difficult? Try these video lessons and learn fast
 
                [Intro]
                                        (on 4th time)
e|---------------------------------------------------------------------------|
B|-5--7--8--8-7-5-3-0--8-7--5--5-3-0-3-5-8-----------------------------------|   
G|---------------------------------------------------------------------------|   x4
D|---------------------------------------------------------------------------|
A|-3--5--7-------------7-5--3------------7-----------------------------------|
E|---------------------------------------------------------------------------|

[Verse]

e|---------------------------------------------------------------------------|
B|-12-3-5-------8------------------------------------------------------------|
G|---------------------------------------------------------------------------|   x4
D|---------------------------------------------------------------------------|
A|-10-2-3-------7------------------------------------------------------------|
E|---------------------------------------------------------------------------|

[Chorus] = intro
e|---------------------------------------------------------------------------|
B|-5--7--8--8-7-5-3-0--8-7--5--5-3-0-3-5-8-----------------------------------|   
G|---------------------------------------------------------------------------|   x4
D|---------------------------------------------------------------------------|
A|-3--5--7-------------7-5--3------------7-----------------------------------|
E|---------------------------------------------------------------------------| 

[Verse] again
e|---------------------------------------------------------------------------|
B|-12-3-5-------8------------------------------------------------------------|
G|---------------------------------------------------------------------------|   x4
D|---------------------------------------------------------------------------|
A|-10-2-3-------7------------------------------------------------------------|
E|---------------------------------------------------------------------------|

[Chorus] again
e|---------------------------------------------------------------------------|
B|-5--7--8--8-7-5-3-0--8-7--5--5-3-0-3-5-8-----------------------------------|   
G|---------------------------------------------------------------------------|   x4
D|---------------------------------------------------------------------------|
A|-3--5--7-------------7-5--3------------7-----------------------------------|
E|---------------------------------------------------------------------------| 

[Outro]
                                                    (repeats to end of song)
e|-5---5---5---5---5---5-5-5-5-5-5-3--5-3-7-8--------5-3--5-3-7-8------------|
B|---------------------------------------------------------------------------|
G|---------------------------------------------------------------------------|
D|---------------------------------------------------------------------------|
A|-3---3---5---3---3---3-3-3-3-3-3-2--3-2-5-7--------3-2--3-2-5-7------------|
E|---------------------------------------------------------------------------|            
Submit corrections


        17  lessons Hard to play? Try these video lessons and learn fast 17  lessons
        
↑ Back to top | Tablatures and chords for acoustic guitar and electric guitar, ukulele, drums are parodies/interpretations of the original songs. You may use it for private study, scholarship, research or language learning purposes only