Home » J » Jason Upton »

Jason Upton - In The Silence Tabs

Artists:  A B C D E F G H I J K L M N O P Q R S T U V W X Y Z # 

In The Silence Tabs

(ver. 1) Click to play this song!
Jason Upton


Verse1

E--------------------|
B--------------------|
G---4-4--------------|
D---4-4---7-7---5-5--|
A---2-2---7-7---5-5--|
E---------5-5---3-3--|
That im telling you you have me

E--------------------|
B--------------------|
G---4-4--------------|
D---4-4---7-7---5-5--|
A---2-2---7-7---5-5--|
E---------5-5---3-3--|
but i know you really don't

E--------------------|
B--------------------|
G---4-4--------------|
D---4-4---7-7---5-5--|
A---2-2---7-7---5-5--|
E---------5-5---3-3--|
and that im telling you i'll follow

E--------------------|
B--------------------|
G---4-4--------------|
D---4-4---7-7---5-5--|
A---2-2---7-7---5-5--|
E---------5-5---3-3--|
when i know i really wont

E--------------------|
B--------------------|
G---------7-7--------|
D---2-2---7-7---5-5--|
A---2-2---5-5---5-5--|
E---0-0---------3-3--|
coz i'd rather stand here speechless

E--------------------|
B--------------------|
G---4-4--------------|
D---4-4---7-7---5-5--|
A---2-2---7-7---5-5--|
E---------5-5---3-3--|
when no way words to say

E--------------------|
B--------------------|
G---------7-7--------|
D---2-2---7-7---5-5--|
A---2-2---5-5---5-5--|
E---0-0---------3-3--|
if my silence is more truthful

E--------------------|
B--------------------|
G---4-4--------------|
D---4-4---7-7---5-5--|
A---2-2---7-7---5-5--|
E---------5-5---3-3--|
and my ears can hear how to walk in your way

Chorus:

E---------------|
B---------------|
G---4-4---------|
D---4-4---7-7---|
A---2-2---7-7---|
E---------5-5---|
In the silence

E---------------|
B---------------|
G---------------|
D---5-5---7-7---|
A---5-5---7-7---|
E---3-3---5-5---|
you are speaking

E---------------|
B---------------|
G---4-4---------|
D---4-4---7-7---|
A---2-2---7-7---|
E---------5-5---|
in the quiet i

E---------------|
B---------------|
G---------------|
D---5-5-5-5-----|
A---5-5-5-5-----|
E---3-3-3-3-----|
can feel the fire

E---------------|
B---------------|
G---4-4---------|
D---4-4---------|
A---2-2---------|
E---------------|
and its burning

E---------------|
B---------------|
G---------------|
D---7-7---5-5---|
A---7-7---5-5---|
E---5-5---3-3---|
burning deeply

E--------------------|
B--------------------|
G---4-4--------------|
D---4-4---7-7---5-5--|
A---2-2---7-7---5-5--|
E---------5-5---3-3--|
burning honors is thy you desire

E---------------------------|
B---------------------------|
G---4-4---------7-7---------|
D---4-4---7-7---7-7---5-5---|
A---2-2---7-7---5-5---5-5---|
E---------5-5---------3-3---|
to be silent

E---------------------------|
B---------------------------|
G---4-4---------7-7---------|
D---4-4---7-7---7-7---5-5---|
A---2-2---7-7---5-5---5-5---|
E---------5-5---------3-3---|
in me

Verse2

E--------------------|
B--------------------|
G---4-4--------------|
D---4-4---7-7---5-5--|
A---2-2---7-7---5-5--|
E---------5-5---3-3--|
oh jesus can you hear me

E--------------------|
B--------------------|
G---4-4--------------|
D---4-4---7-7---5-5--|
A---2-2---7-7---5-5--|
E---------5-5---3-3--|
my soul is screaming out

E--------------------|
B--------------------|
G---4-4--------------|
D---4-4---7-7---5-5--|
A---2-2---7-7---5-5--|
E---------5-5---3-3--|
and my broken will cry teach me

E--------------------|
B--------------------|
G---4-4--------------|
D---4-4---7-7---5-5--|
A---2-2---7-7---5-5--|
E---------5-5---3-3--|
wat's ur kingdom all about

E--------------------|
B--------------------|
G---------7-7--------|
D---2-2---7-7---5-5--|
A---2-2---5-5---5-5--|
E---0-0---------3-3--|
and ignite my heart to fear you

E--------------------|
B--------------------|
G---4-4--------------|
D---4-4---7-7---5-5--|
A---2-2---7-7---5-5--|
E---------5-5---3-3--|
to fear your holy name

E--------------------|
B--------------------|
G---------7-7--------|
D---2-2---7-7---5-5--|
A---2-2---5-5---5-5--|
E---0-0---------3-3--|
and create a life of worship

E--------------------|
B--------------------|
G---4-4--------------|
D---4-4---7-7---5-5--|
A---2-2---7-7---5-5--|
E---------5-5---3-3--|
in spirit and truth of your loving ways

Chorus:

E---------------|
B---------------|
G---4-4---------|
D---4-4---7-7---|
A---2-2---7-7---|
E---------5-5---|
In the silence

E---------------|
B---------------|
G---------------|
D---5-5---7-7---|
A---5-5---7-7---|
E---3-3---5-5---|
you are speaking

E---------------|
B---------------|
G---4-4---------|
D---4-4---7-7---|
A---2-2---7-7---|
E---------5-5---|
in the quiet i

E---------------|
B---------------|
G---------------|
D---5-5-5-5-----|
A---5-5-5-5-----|
E---3-3-3-3-----|
can feel the fire

E---------------|
B---------------|
G---4-4---------|
D---4-4---------|
A---2-2---------|
E---------------|
and its burning

E---------------|
B---------------|
G---------------|
D---7-7---5-5---|
A---7-7---5-5---|
E---5-5---3-3---|
burning deeply

E--------------------|
B--------------------|
G---4-4--------------|
D---4-4---7-7---5-5--|
A---2-2---7-7---5-5--|
E---------5-5---3-3--|
burning honors is thy you desire

E---------------------------|
B---------------------------|
G---4-4---------7-7---------|
D---4-4---7-7---7-7---5-5---|
A---2-2---7-7---5-5---5-5---|
E---------5-5---------3-3---|
to be silent

E---------------------------|
B---------------------------|
G---4-4---------7-7---------|
D---4-4---7-7---7-7---5-5---|
A---2-2---7-7---5-5---5-5---|
E---------5-5---------3-3---|
in me

ey guys i really put my effort on constructing this tab... i already passed one but only 
on it.... hope you like it... rate it please...
Rock On....
                                       Triani-Sesiha
            
Submit corrections

↑ Back to top | Tablatures and chords for acoustic guitar and electric guitar, ukulele, drums are parodies/interpretations of the original songs. You may use it for private study, scholarship, research or language learning purposes only