» » »

Jason Becker - Sweet Baboon Tabs

Artists:  A B C D E F G H I J K L M N O P Q R S T U V W X Y Z # 

Sweet Baboon Tabs

(ver. 1) Click to play this song!
Jason Becker
 Rating:
4/5 (4 votes)

 Sweet Baboon lessons Tabs too difficult? Try these video lessons and learn fast
 
                Hope you like it 
  E
----------------------------------------7--9--------9--10-------7--9---------
--------6-7-------7-9--------9-11--------------------------------------------
----6-9-------6-9--------6-9--------6-9---------6-9---------6-9--------------
--7---------7----------7----------7-----------7-----------7------------------

-------9-11-------7-9--------------------------------------------------------
---6-9--------6-9------------------------------------------------------------
-7----------7----------------------------------------------------------------

 G#
-------------------------------------------------------11-13----------13-14--
----------10-11----------11-13----------13-15--------------------------------
----10-14----------10-14----------10-14----------10-14----------10-14--------
-11-------------11-------------11-------------11-------------11--------------

----------11-13--------------------------------------------------------------
-------------------------13-15----------11-13--------------------------------
----10-14----------10-14----------10-14--------------------------------------
-11-------------11-------------11--------------------------------------------

--6-------------------6--------------------6---------------------------------
----9--6---8-9--6-------9--6---8-9--6--------9--6---8-9--6-------------------
--------7---------7---------7---------7----------7---------7-----------------

--9-8-5----7-8-5------9-8-5----7-8-5------9-8-5----7-8-5---------------------
--------6--------6----------6--------6----------6--------6-------------------

--12-11-9------12-11-9-------12-11-9-------12-11-9-------12-11-9-------------
----------9------------9-------------9-------------9-------------9-----------
-----------9-------------9-------------9-------------9-------------9---------

--8-4--------8-4---------8-4---------8-4----------8-4------------------------
-----4-----------4-----------4----------4-------------4----------------------
-------7-5---------7-5---------7-5--------7--5----------7--5-----------------

-0---------------------------------------------------------------------------
-0---------------------------------------------------------------------------
-1---------------------------------------------------------------------------
-2----2-----4------6-------10----6----4----6---------------------------------
-2---------------------------------------------------------------------------
-0----0-----2-----/4------/7----\4---\2---/4-------etc-----------------------
FreakMen
            
Submit corrections


        Sweet Baboon lessons Hard to play? Try these video lessons and learn fast Sweet Baboon lessons
        
↑ Back to top | Tablatures and chords for acoustic guitar and electric guitar, ukulele, drums are parodies/interpretations of the original songs. You may use it for private study, scholarship, research or language learning purposes only