» » »

Jason Becker - Savage Tabs

Artists:  A B C D E F G H I J K L M N O P Q R S T U V W X Y Z # 

Savage Tabs

(ver. 1) Click to play this song!
Jason Becker
 Rating:
4/5 (4 votes)

 Savage lessons Tabs too difficult? Try these video lessons and learn fast
 
                Hope you like it enjoy !!
(Distortion...)

----------------9---------------------------------------------9--------------
----------------9-----------------3--2--3---------------------9--------------
-2---2-2-2------7-\--2---2-2-2----3--2--3-----2----2-2-2------7\-------------
-0---0-0-0-----------0---0-0-0----1--0--1-----0----0-0-0---------------------

-6-7-9-7-6------5------------------------------------------------------------
----------8-7-8--8-7-5-------------------------------------------------------

----------------9---------------------------------------------9--------------
----------------9-----------------3--2--3---------------------9--------------
-2---2-2-2------7-\--2---2-2-2----3--2--3-----2----2-2-2------7\-------------
-0---0-0-0-----------0---0-0-0----1--0--1-----0----0-0-0---------------------

-------7-10-9--6-9-8----10---------------------------------------------------
-7-10-8-------------8-7---8--------------------------------------------------
                                                                        
-/13-10---------------/13-10---------------------12------10-12--10-12---9----
-------12-------------------12----------------/12---11-10-----11-----11---8--
---------13-10----------------13-10--10~-------------------------------------
--------------12~------------------12----------------------------------------

---/22-19-----------------19-20-22--20-22-20-19---------15-17-19--17-19-17-15
---------21------------------------------------22-20-------------------------
-----------22-19--19~--------------------------------------------------------
----------------21-----------------------------------------------------------

---------15-13-12-13-15-13-15-13-12----------10-8-12-10-12-10-8--------------
-18-17-----------------------------15-13-----------------------12-10---------

---5-7-5-3---------3-5-------------------------------------------------------
----------6-5-3-5-6----------------------------------------------------------
------------------------7~---9--10~------------------------------------------

-17-19-20-19-20-19-17-----------15-17-15--------------------10-12-13-12-13-12
---------------------20-18-17-----------18-17-15-17-18-15--------------------

-10--------10------10-8-10-8-7-------7---------------------------------------
---13-12-13-------------------10-8-10-------10-8-6-8--6-8-10-8-10-8-6--------


-------------/16-13-\12-13-12\10-12-10\8-10-8\7-8-7\5-7-5\4-5-4--------------
--/7--5~----------------------------------------------------------------7-5-7

---------------------------------------10----13-17-16--13-12-----------------
-------------------------------10-12-13--------------15-----12-15b~----------
-5-4-5------------------9-10-13----------------------------------------------
------7----------9-10-12-----------------------------------------------------
------------11-12------------------------------------------------------------

-------10---10----------------8-12-8-12-8----------18-19-17-19-16-19--19--19-
--13b-----13--13-10--------8b------------8--------------------------15--14---
-------------------13~--------------------9~---------------------------------

---19---19---19---19----------12-8--------------8--11-8--------------8-11-8--
----------------------------------10----------10-------10----------10--------
-16---17---16-----------------------9--------9-----------11-8--8-11----------
----------------13---14~-------------10--9-10----------------10--------------
---------------------------------------12------------------------------------

-12-7---------14-17--14------------------------------------------------------
-----9-------------17--14-17--14-----14--------------------------------------
------9\4-------------------16--14-16--16-14-16-14-13-14~--------------------
---------6-------------------------------------------------------------------
----------7------------------------------------------------------------------

-----12-17-12------12-17-12------12-17-12-----17-13\12-13-12\10-12-10--------
---13--------13--13--------13--13--------13--------------------------13-15-13
-14------------14------------14------------14--------------------------------

-\12-13-12\10-12-10-----------------------------------------------------10-12
-------------------13-14-13\10-13-10--9-10-9-7-9-10-9-7-----------7-9-10-----
-------------------------------------------------------10-9-7-9-10-----------

---10-12-13---------13-15-17--/22b~------------------------------------------
-13---------13-15-17---------------------------------------------------------

-----------9------------7------------9-------------7-------------9-----------
-----------9------------7------------9-------------7-------------9-----------
-----------7------------5------------7-------------5-------------7-----------
-0--0-0-0-----0--0-0-0-----0--0-0-0------0--0-0-0------0--0-0-0--------------

-----------7------------4----5----7------------------------------------------
-----------7------------4----5----7------------------------------------------
-----------5------------2----3----5------------------------------------------
-0--0-0-0-----0--0-0-0-------------------------------------------------------

-----------9------------7------------9-------------7-------------9-----------
-----------9------------7------------9-------------7-------------9-----------
-----------7------------5------------7-------------5-------------7-----------
-0--0-0-0-----0--0-0-0-----0--0-0-0------0--0-0-0------0--0-0-0--------------

-----------7------------3--4-5-4--3--4---------------------------------------
-----------7------------3--4-5-4--3--4---------------------------------------
-----------5------------1-/2/3\2-\1-/2---------------------------------------
-0--0-0-0-----0--0-0-0-------------------------------------------------------



-2--------------10-------------7----------7-8-7-------2----------------2-----
-2--------------10-------------7----------7-8-7-------2----------------2-3-5-
-0--------------8--------------5----------5/6\5-------0----------------0-3-5-

-2--------------10-------------7------------2-------2-------5-2--------------
-2--------------10-------------7------------2-3--5--2----------5-2-----------
-0--------------8--------------5------------0-3--5--0--------------5-3-------
----------------------------------------------1--3---------------------------

-2--------------10-------------7----------7-8-7-------2----------------2-----
-2--------------10-------------7----------7-8-7-------2----------------2-3-5-
-0--------------8--------------5----------5/6\5-------0----------------0-3-5-

-2--------------10-------------7---------------------------------------------
-2--------------10-------------7---------------------------------------------
-0--------------8--------------5----------------------7-5--7~----------------
---------------------------------------------------------7-------------------

--12------13--------12--------12--------8---10-------------------------------
--12------13--------12--------12--------8---10-------------------------------
--10------11--------10--------10--------6---8--------------------------------
-----0-0-----0--0--------0-0------0-0----------------------------------------

--10------12--------10--------10-------8---10--------------------------------
--10------12--------10--------10-------8---10--------------------------------
--8-------10--------8---------8--------6---8---------------------------------
-----0-0-----0--0-------0-0-------0-0----------------------------------------


fill 1
--17-15-------------17-15----------------------------------------------------
-------18-16-18-16-------18-16-18-16-15-16b-rb16-15-16-15--------------------
---------------------------------------------------------15-14-15~-----------

fill 2
-12-8-7--8-7-----------------------------------------------------------------
------------8--12-8\7-8---5-7-5----------------------------------------------
-------------------------------6-5-------------------------------------------

fill 3
--15-11\10-11-10-----10-6\5-6-5----------------------------------------------
----------------11--------------8-10-8---------------------------------------
--------------------------------------8-7------------------------------------

solo

-----------15---15b~---------------------------------------------------------
-----17-13-------------------------------------------------------------------
-/14---------------------------------------------------------------------14--
-----------------------------14-13------13-12----12-13----13-14-----14-15----
--------------------------12------12---------12-------12-------12------------

------------------------------15----------17-19-17---------------------------
---------17-16~-------15-17-18----17-18-20--------20-18----22-20-18--20-18---
---16-17-----------------------------------------------------------21-----21-

----18-----------------------------------------------------------------------
-19---21-19-17--21-19-17--19-17-----17----------14-16-17-14-16-14-12-14-16-14
------------------------21-----21-19--21-19-17-------------------------------

----------------------19-15-/20-15-20-15-------------------------------------
----------------------------------------17-----------------------------------
-12---------12-14-16----------------------15~--------------------------------
----16-14-16-----------------------------------------------------------------

-----18------------16--14----------15-17--------18----18---------16-14-------
----------18-----15----------16-14---------17-------------18--15------16-14--
--16---17------------------------------------16---------17-------------------

--15-17----------------------------------------------------------------------
--------17---------------------------------------/21\------------------------
-------------13-15-16-15-13-15-16-15-13-15-16-15-----------------------------

------13-18-13-----------13-18-13-----------15-20-15-------------------------
----14--------14-------15--------15-------17--------17-----------------------
--15------------15---15------------15---17------------17~--------------------

--15-17----------------------------------------------------------------------
-------15-17-----------------------------------------------------------------
-------------14-16--\12-14---------------------------------------------------
---------------------------12-14---------------------------------------------
--------------------------------12-14--\10-12--------------------------------
---------------------------------------------10-12\--------------------------

-----------------------------------12-13----12-10----------------------------
--10---------12-13-12-10-12~----/13-----15-------13-12--13-12-10-9-10\-------
----11-10-11-----------------------------------------------------------------

-----12-13----12-10------8-10-12-8-10-8-----8-10-12-13-12--12~---------------
--/13------15------13-12---------------12-10-------------10------------------

---------------------------------12-13---12-10-8-----------------------------
-10-----10-12-13-12-10-12~----/13-----15--------12-13-12-10-9-10\------------
---10-11---------------------------------------------------------------------

----12-13----12-10-8---8-10-12-8-10-8-----8-10-8-----------------------------
-/13-----15----------12--------------12-10------12-10-12-9-10~---------------

 guitar 1
-------------------------------------------------------------11----------9---
-----------------------------------------------------------11--11------9--11~
-/8-10-11-10~-------11^13-11^13^11\10--10b-rb10^8~-------8-------8-11--------

---------9-6-9-/10~----------------------------------------------------------
--11-9-11--------------------------------------------------------------------
 guitar 2
----6-11-6---6-11-6---6-11-6---6-11---6--------------------------------------
---7------7-7------7-7------7-7----7-7---etc---------------------------------
--8--------8--------8--------8------8----------------------------------------

---------------------------13-15-16-/18--/20-18-16---------------------------
-------------------13-15-16-----------------------20-18-16-------------------
----------10-12-13----------------------------------------19-17-15-\13~------
--10-12-13-------------------------------------------------------------------
                                                                1/2     1/2
----15-18-15---------------------18-15------15---20-18------18-22b~---22b----
--16--------16------------11-16-------16--16----------20--20-----------------
--------------15--------12--------------15--------------20-------------------
----------------17----13-----------------------------------------------------
------------------18---------------------------------------------------------
     1/2
---22b~----------------------------------------------------------------------

-----------------------------------12-13----12-10----------------------------
--10---------12-13-12-10-12~----/13-----15-------13-12--13-12-10-9-10\-------
----11-10-11-----------------------------------------------------------------

-15-18-16-18-15-18-16-15--15-16--15--------15--------------------------------
------------------------18-----18--18-16-18--18-16-15--16-15-----------------
-----------------------------------------------------17-----17-16~-----------

-------------------------------10---------12-13-10-12~-----------------------
-10-----10-12-13-12-10-12~-------12-10-12------------------------------------
---10-11---------------------------------------------------------------------

--12-12-12--13-15----16-/20-19^20^19^16---19^20^19^16---15-16-13~------------

 guitar 1
--------------------------------------------------------6--7----^6^7-6-------
--------------------9b---rb9--7-----7--6~------6--7--9--------------9--9b----
-/8-10-11-10~----------------------------------------------------------------

-----rb9--^7-\6~-------------------------------------------------------------
 guitar 2
----6-11-6---6-11-6---6-11-6---6-11---6--------------------------------------
---7------7-7------7-7------7-7----7-7---etc---------------------------------
--8--------8--------8--------8------8----------------------------------------

---------------------------13-15-16-/18--/20-18-16---------------------------
-------------------13-15-16-----------------------20-18-16-------------------
----------10-12-13----------------------------------------19-17-15-\13~------
--10-12-13-------------------------------------------------------------------

                                                                1/2     1/2
----15-18-15---------------------18-15------15---20-18------18-22b~---22b~---
------------16------------11-16-------16--16----------20--20-----------------
--------------15--------12--------------15--------------20-------------------
----------------17----13-----------------------------------------------------
------------------18---------------------------------------------------------

-8----------10---------------------------------------------------------------
-8----------10---------------------------------------------------------------
-6----------8----------------------------------------------------------------

outro solo

--------18b-----18-15-17--20-15------20-15-----------------------18-15-------
---/15-------------------------18---------18------18-15------15-------15--15-
---------------------------------19---------19---------15--15-----------15---
---------------------------------------------------------17------------------

-15---20-17------17--18-15------15--20-17------17----------------------------
-----------18--18---------15--15---------18--18------------------------------
-------------17-------------15-------------17------17b--15~------------------

--15--18b-------rb-----------------18-23-18-------18-23-18-------------------
--------------------18-16-18-----19--------19---20-----------15---16---------
-------------------------------20-------------20---------------15---15-------

-------16---------15---------------15-------------13-------------------------
-14-17---17-14-17---17-14-17--14-17--17-14--\12-14--14-12--------------------
------------------------------------------------------------15-12-\10-8-10~--

--------10--10-----11---11------17-----17-17-17-17--18-----18-13-------16b---
------9-------10-11-------13-15-------------------16---17-------15--15-------
-----7------------------------------------------------------------15---------
--/8-------------------------------------------------------------------------


--11--6---6---/17-12------12---/18~--18~-18~----/20~--20~----20~-------------
-------8-8----------12--12---------------------------------------------------
--------8-------------12-----------------------------------------------------

--/20-15--------15-18-15--------15-------------------------------------------
--------18-15-18--------18-15-18--18-15---15---------------------------------
---------------------------------------17---18-17-15-17~---------------------

----------------------------------------13-17-13---------------13-15b--------
-----------------------------------13-15---------15-13-------13--------------
--15-10----------12--------------12-------------------12---14----------------
-------12------12--12--12---12-15-----------------------15-------------------
---------13--12------12------------------------------------------------------

--17tr18---------18tr20--------20b----22b---23b-----------rb\----------------

-3---------------------------------------------------------------------------
-3--3-3-3-3-3-3-3--3---------------------------------------------------------
-1--1-1-1-1-1-1-1--3--3-3-3-3-3-3--------------------------------------------
-------------------1--1-1-1-1-1-1--------------------------------------------

--18-15----------------------------------------------------------------------
-------18-15----15-18-15-----------------------------------------------------
------------17----------17-15------17-15-----17-15------17-15----------------
-----------------------------17-15------17-15-----17-15-------17-15----------

-----------------------------15----15----------------------------------------
--------16b---------18b------18b---18b---\-----------------------------------
(0-0-0)-----(1-1-1)----------(1-----1)---------------------------------------
            
Submit corrections


        Savage lessons Hard to play? Try these video lessons and learn fast Savage lessons
        
↑ Back to top | Tablatures and chords for acoustic guitar and electric guitar, ukulele, drums are parodies/interpretations of the original songs. You may use it for private study, scholarship, research or language learning purposes only