» » »

Jason Becker - End Of The Beginning Tabs

Artists:  A B C D E F G H I J K L M N O P Q R S T U V W X Y Z # 

End Of The Beginning Tabs

(ver. 1) Click to play this song!
Jason Becker
 Rating:
4/5 (4 votes)

 End Of The Beginning lessons Tabs too difficult? Try these video lessons and learn fast
 
                Hope you like it enjoy!
(/Distortion...)


------------------------------------------------9~---9-----7/9-11-12--9------
---------9~----9--11/13--11-9~----11^13--------------------------------------
---9-11--------------------------------14--11\6------------------------------

------11-12-------------11-12--9---------------------------------------------
--10--------12\10-9-9~----------10-9-----------------------------------------
-------------------------------------11---8--9^11^9-8------------------------
---------------------------------------11------------11----/9~---9-9^11-9~---
-------------------------------------------------------11--------------------

-------------------------------------------5--9--12--------16-11-12---17-16~-
-----------------------------------------5----------11-12--------------------
---------------------------------2--4/6--------------------------------------
--/7----/6---6--6^7-6~---4\----2---------------------------------------------

-----14-13---13/14--16~---17-18---18b--18\-----12^11^12/16----16\---9--8-9---

-/12\---------------------------------11-12----------------------------------
--------9^8^9/14---12^14^12---10~---10------12\10^9-9~------/7---------------
--------------------------------------------------------------8--------------

-------------------------------------------------12-13-14-15-16-17~----17/21-
---------------------------------------9---12/14-----------------------------
-----------------------------------9----9------------------------------------
-------------2--6-6-7-8-9-10--11----11---------------------------------------
-4-3-2---2----2-----------------11-------------------------------------------
------4-6--4-----------------------------------------------------------------
                                                   1/2
----19^18--19~---17^16\14---14/16--17~---18~-----18b------24^19^16^17--24^16-

------------16^19^24^19^16-----------------12^21^16^12^14--21^12----------12^
-17-------17--------------17-------------14--------------16-----14------14---
----16--16------------------16---------13-------------------------13--13-----
------18----------------------18\14---------------------------------14-------

--16^21^16^12----------------9^12^17^12^9------------4^7^12^7^4--------------
-------------14------------10------------10---------5----------5-------------
---------------13---------9----------------9-------4------------4------------
-----------------14\11----------------------11\6-----------------6-----------

-------------------------------------------------------12-14-16--------------
-------------------------------------11-13-14-11-13-14-----------------------
-------------------11-13-14-11-13-14-----------------------------------------
-11-12-14--11-12-14----------------------------------------------------------


---12/19---19/21--\16---^19---17~--19~---^21---^17--^23---^19-----24\---19\--

--12\------------------------------------------------------------------------
--------12\-------17\------12\-----------------------------------------------
----------------------------------9\-----------9\----------------------------
------------------------------------------9\---------9\----------------------
-----------------------------------------------------------7\----------------
            
Submit corrections


        End Of The Beginning lessons Hard to play? Try these video lessons and learn fast End Of The Beginning lessons
        
↑ Back to top | Tablatures and chords for acoustic guitar and electric guitar, ukulele, drums are parodies/interpretations of the original songs. You may use it for private study, scholarship, research or language learning purposes only