» » »

Jason Becker - Clinic Aim Tabs

Artists:  A B C D E F G H I J K L M N O P Q R S T U V W X Y Z # 

Clinic Aim Tabs

(ver. 1) Click to play this song!
Jason Becker
 Rating:
4/5 (4 votes)

 Clinic Aim lessons Tabs too difficult? Try these video lessons and learn fast
 
                Hope you Like it !!
*--------------------------------------------------------------------------
-----------16----------------16----------------14----------------14--------
-----11-14----14-11----11-14----14-11----11-14----14-11----11-14----14-11--
*-12----------------12----------------12----------------12-----------------

-----------------------------------------------------12-17-12---------------
--------------------------------------------------14----------14------------
------------16---------------16----------------14----------------14---------
------11-14----14-11---11-14----14-11----11-14----------------------14-11---
---12---------------12----------------12------------------------------------

------------18----------------18----------------16----------------16--------
------12-16----16-12----12-16----16-12----12-16----16-12----12-16----16-12--
---14----------------14----------------14----------------14-----------------

------------------------------------------------------14-19-14--------------
---------------------------------------------------15----------15----------*
------------18----------------18----------------16----------------16--------
------12-16----16-12----12-16----16-12----12-16----------------------16-12--
---14----------------14----------------14----------------------------------*
FreakMen
            
Submit corrections


        Clinic Aim lessons Hard to play? Try these video lessons and learn fast Clinic Aim lessons
        
↑ Back to top | Tablatures and chords for acoustic guitar and electric guitar, ukulele, drums are parodies/interpretations of the original songs. You may use it for private study, scholarship, research or language learning purposes only