» » »

Jason Aldean - Any Ol Barstool Tabs

Artists:  A B C D E F G H I J K L M N O P Q R S T U V W X Y Z # 

Any Ol Barstool Tabs

(ver. 1) Click to play this song!
Jason Aldean
 Rating:
4.3/5 (22 votes)


 Any Ol Barstool  lessons Tabs too difficult? Try these video lessons and learn fast
 
                [Intro]
e|---------------------------------------------------------------------------|
B|------------5~~~-----------------------------------------------------------|
G|-4/6--4--6--------------------4--------------------------------------------|
D|-------------------------4h6-----6~~~--------------------------------------|
A|---------------------------------------------------------------------------|
E|---------------------------------------------------------------------------|

e|---------------------------------------------------------------------------|
B|------------5~~~-----------------------------------------------------------|
G|-4/6--4--6--------------------4--------------------------------------------|
D|-------------------------4h6-----6~~~-4------------------------------------|
A|---------------------------------------------------------------------------|
E|---------------------------------------------------------------------------|            
Submit corrections



        Any Ol Barstool  lessons Hard to play? Try these video lessons and learn fast Any Ol Barstool  lessons
        
↑ Back to top | Tablatures and chords for acoustic guitar and electric guitar, ukulele, drums are parodies/interpretations of the original songs. You may use it for private study, scholarship, research or language learning purposes only