» » »

Janes Addiction - Idiots Rule Bass

Artists:  A B C D E F G H I J K L M N O P Q R S T U V W X Y Z # 

Idiots Rule Bass

(ver. 1) Click to play this song!
Janes Addiction
 Rating:
4.3/5 (20 votes)

 Idiots Rule lessons Tabs too difficult? Try these video lessons and learn fast
 
                RIFF 1]

G|-------7--5-----0h5h7---------------10--------12-|
D|---------------------0h7p0h6p0-------------------|
A|-5*----------------------------8-------x-10------|
E|-------------------------------------------------|
  
[RIFF 1 FILLS]

G|----x-12-|  G|--------|
D|---------|  D|--------|
A|-10------|  A|-8/9-10-|
E|---------|  E|--------|


[RIFF 2 around 1:41]

G|-------7*--------------------------| x4
D|-----------------------------------|
A|-5*----------5--5--3-3-3-033-x-3-0-|
E|-----------------------------------|

G|-------7*----------------5*----------------7*----------------5-----------|
D|-------------------------------------------------------------------------|
A|-5*----------------3*--------------0-5*----------------3*------033-x-3-0-|
E|-------------------------------------------------------------------------|


RIFF 1 

G|-------7--------0h5h7---------------10--------12-|
D|----------5----------0h7p0h6p0-------------------|
A|-5*----------------------------8-------x-10------|
E|-------------------------------------------------|

END

G|-------7-|
D|---------|
A|-5*------|
E|---------|            
Submit corrections


        Idiots Rule lessons Hard to play? Try these video lessons and learn fast Idiots Rule lessons
        
↑ Back to top | Tablatures and chords for acoustic guitar and electric guitar, ukulele, drums are parodies/interpretations of the original songs. You may use it for private study, scholarship, research or language learning purposes only