Home » J » Janes Addiction »

Janes Addiction - End To The Lies Bass

Artists:  A B C D E F G H I J K L M N O P Q R S T U V W X Y Z # 

End To The Lies Bass

(ver. 1) Click to play this song!
Janes Addiction
 Rating:
4/5 (4 votes)
                END TO THE LIES - Jane's Addiction

Bass tab by Robomon.

Intro:
G)-------------------|
D)-------------------|
A)-0-3-5-3-5--0-3-5--|
E)-------------------|
The 0 and the 3 aren't played when the song starts.

Verse and guitar solos:
G)---------------------------------|
D)---------------------------------|
A)-5-5-5-5-5-5-5-5-5-5-5-5-5-5-5-5-|
E)---------------------------------|

Chorus (You never really change like they say...):
G)--------------------------------|
D)--------------------------------|
A)-3-3-3-3-3-3-7-5-5-5-5-5-5-5-5--|
E)--------------------------------|

Bridge and outro (The parts where Perry sings; End to the lies, end to the lies. And; 
You were the foreskin I was the real head...):
G)-----------------|
D)-----------------|
A)-----------------|
E)-6h8-8-6-8-6-6-8-|
When playing this live, Chris Chaney often improvises a lot when this is played, so this 
is only one of many ways to play this part.
            
Submit corrections

↑ Back to top | Tablatures and chords for acoustic guitar and electric guitar, ukulele, drums are parodies/interpretations of the original songs. You may use it for private study, scholarship, research or language learning purposes only