» » »

Janes Addiction - 1 Percent Tabs

Artists:  A B C D E F G H I J K L M N O P Q R S T U V W X Y Z # 

1 Percent Tabs

(ver. 1) Click to play this song!
Janes Addiction
 Rating:
2.7/5 (25 votes)

 1 Percent  lessons Tabs too difficult? Try these video lessons and learn fast
 
                Tuning:Standard

e|---------------------------------------------------------------------------|
B|---------------------------------------------------------------------------|
G|-----9---9-----9-9------5---5------9---9-----9-9------5---5----------------|
D|-----9-x-9-x-x-9-9------5-x-5------9-x-9-x-x-9-9------5-x-5----------------|
A|---x-7-x-6-x-x-7-6----x-3-x-2----x-7-x-6-x-x-7-6----x-3-x-2----------------|
E|-7-x----------------3-x--------7-x----------------3-x----------------------|

e|---------------------------------------------------------------------------|
B|---------------------------------------------------------------------------|
G|-----9---9-----9-9------5---5------9---9-----9-9------5---5----------------|
D|-----9-x-9-x-x-9-9------5-x-5------9-x-9-x-x-9-9------5-x-5----------------|
A|---x-7-x-6-x-x-7-6----x-3-x-2----x-7-x-6-x-x-7-6----x-3-x-2----------------|
E|-7-x----------------3-x--------7-x----------------3-x----------------------|

e|-----------------------------------------5---3----------------------------------------------------------|
B|-----------------------------------------5---3---------------------------------------------------10-----|
G|-----9-x-9-x-x-9p7h9p7---7------5-x-5----6---4--------7---7----------7---7-----------7-x-----x-x-9b11b9-|
D|-----9-x-9-x-x---------9--------5-x-5----7---5----7h9---9---9-7-9--9---9---9-7-9---------7h9-x-x--------|
A|---x-7-x-6-x-x----------------x-3-x-2----7---5-----------------------------------7/9--------------------|
E|-7-x------------------------3-x----------5---3----------------------------------------------------------|

e|---------------------------------------------------------------------------|
B|-----------------9------------------9------------------9-------------------|
G|-----------------9------------------9------------------9-------------------|
D|-----------------9------------------9------------------9-------------------|
A|---------------------------------------------------------------------------|
E|-9-x-x-9-x-x-9-x----9-x-x-9-x-x-9-x----9-x-x-9-x-x-9-x---------------------|
            
Submit corrections


        1 Percent  lessons Hard to play? Try these video lessons and learn fast 1 Percent  lessons
        
↑ Back to top | Tablatures and chords for acoustic guitar and electric guitar, ukulele, drums are parodies/interpretations of the original songs. You may use it for private study, scholarship, research or language learning purposes only