Home » J » Jan Delay »

Jan Delay - Wacken Tabs

Artists:  A B C D E F G H I J K L M N O P Q R S T U V W X Y Z # 

Wacken Tabs

(ver. 1) Click to play this song!
Jan Delay
Jan Delay - Wacken

(Standard tuning)



Verse:

e----------------------------------------------------------|
b----------------------------------------------------------|
g-----------7---------------7------------------7-----------|
D-9--9---7--7--7--9--9---7--7--7--9--7--9---7--7--7--9--9--|
A-9--9---7--5--7--9--9---7--5--7--9--7--9---7--5--7--9--9--|
E-7--7---5-----5--7--7---5-----5--7--5--7---5-----5--7--7--|

 (B5     A5 D5 A5 B5     A5 D5 A5 B5 A5 B5  A5 D5 A5 B5   )


Verse Fill A:       Verse Fill B:
e----------------   -------------|
b----------------   -------------|
g----------------   -------------|
D-9-7------------   -9--7--9--7--|
A-----9-7--------   -9--7--9--7--|
E---------10-7-5-   -7--5--7--5--|

                    (B5 A5 B5 A5)



Chorus:

e-----------------------------------------------|
b-----------------------------------------------|
g-----------------------------------------------|
D-----------------------------------------------|
A-5-4-5---5-6-7-5-7-7B8R7-5---------------------|
E-------7--------------------9-7-9-7-9--7-9-7-9-|

 (   D5          E5             B5             )


Third repetition of chorus:
e-------------------------------------------------------|
b-------------------------------------------------------|
g-------------------------------------------------------|
D-------------------------------------------------------|
A---5-6-5-4-5---5-6-7-5-7-7B8R7-5---------------------5-|
E-7-----------7--------------------9-7-9-7-9--7-9-7-9---|

(B = bend up, R = re-bend)



Outro:

e----------------------------------------------|
b----------------------------------------------|
g----------------------------------------------|
D------------9-7-----9-7-----9-7-----9-7-------|
A----------------9-7-----9-7-----9-7-----------|
E-7-9-7-9-7------------------------------7-8-9-|


(Verse + Fill A)

(Verse + Fill A)
1) Neulich morgen bin ich aufgewacht
Und dann hab ich so bei mir gedacht
Irgendwie ist alles festgefahr'n
Und es ist an der Zeit für ein' Wechselrahmen

(Verse + Fill B)
Weil mir wiederholen nicht gefällt
Ich will Beats loopen nich' mich selbst
Denn was moment' mir beginnt hier guten Tag zu sagen
Ja da' muss ich erst eschiessen und als Kappe tragen, au

(Chorus)
Ch) Und darum sag ich tschüss ihr Spacken
(Chorus)
Ich will hier weg ich geh' nach Wacken
(Chorus, 3rd repetition)
Ich packe meine sieben Sachen
(Chorus)
Ich muss hier raus
Wenn ihr mich braucht ich bin in Wacken

(Verse + Fill B) (2x)

(Verse + Fill A)
2) Auf meiner Landkarte is 'n weisser Fleck
Und darum geh' ich auf die Reise jetzt
Späte Freiheit die mir um die Nase weht
Und ich trag 'ne Lederjacke die kein Spaß versteht

(Verse + Fill B)
Frischer Wind in meinem Leben
Dank Dosenbier und Iron Maiden
Ich habe Eier groß wie Kürbisse
Und 'n Mittelfinger für eure Bedrüfnisse

(Chorus)
Ch) Und darum sag ich tschüss ihr Spacken
(Chorus)
Ich muss hier weg ich geh' mit Wacken
(Chorus, 3rd repetition)
Ich packe meine sieben Sachen
(Chorus)
Ich bin hier raus
Wenn ihr mich braucht ich bin in Wacken

(Outro)
            
Submit corrections

↑ Back to top | Tablatures and chords for acoustic guitar and electric guitar, ukulele, drums are parodies/interpretations of the original songs. You may use it for private study, scholarship, research or language learning purposes only