» » »

Jamiroquai - Use The Force Bass

Artists:  A B C D E F G H I J K L M N O P Q R S T U V W X Y Z # 

Use The Force Bass

(ver. 2) Click to play this song!
Jamiroquai
 Rating:
4/5 (4 votes)


 Use The Force lessons Tabs too difficult? Try these video lessons and learn fast
 
                "Yo! here a iroquai classic! i was checking out the othere bass tab for this
song. but no offence to whoever made it, i couldnt understand it?
it was playing it in a different tuning or something ? and the notes were
different? anyway heres my version of it, which i tryed to make much easyer.
sorry if i miss any fills or whatnot, stuart zender is a nutter! ;)

normal tuning
G
D
A
E

intro
|-2-5-4-2------------|
|--------3-5-3-------|
|----------------3---|
|--------------5---3-|

verse                           repeat|  fill   |
|-13-13----13-13----13-13----13-13----|---------|
|-13-13----13-13----13-13----13-13----|---------|
|-------------------------------------|---------|
|-------13-------13-------13-------13-|-0-1-2-3-|

my version of the main riff is

main riff
|----------------------------7---|
|------5----7---7-------8--------|
|-----5---------------8----5---4-| repeat
|-3-3-----5---5---6-6------------|

for the main riff the veration changes heaps! but the root riff is this.
which i like to play my own style to and add different notes, which am sure
you can also do

|-------------|
|-------------|  thats the roof riff, which reapets. just jam to it;)
|---------5-4-|
|-3--5-6------|

chorus (with distortion)
|-----------------|
|-----------------|
|---------4~--3~--| repeat
|-3~--5~----------|

interlude
|-2-5-4-2------------|
|--------3-5-3-------|
|----------------3---|
|--------------5---3-|

verse                           repeat|  fill   |
|-13-13----13-13----13-13----13-13----|---------|
|-13-13----13-13----13-13----13-13----|---------|
|-------------------------------------|---------|
|-------13-------13-------13-------13-|-0-1-2-3-|

main riff
|----------------------------7---|
|------5----7---7-------8--------|
|-----5---------------8----5---4-| repeat
|-3-3-----5---5---6-6------------|

chorus (with distortion)
|-----------------|
|-----------------|
|---------4~--3~--| repeat
|-3~--5~----------|

bridge
|----------------------------7---|
|------5----7---7-------8--------|
|-----5---------------8----5---4-| repeat
|-3-3-----5---5---6-6------------|

outro (with distortion)
|-----------------|
|-----------------|
|---------4~--3~--| repeat
|-3~--5~----------|


please comment and rate. sorry again if i miss anything out, do comment if
i do :)

A.J
"            
Submit corrections



        Use The Force lessons Hard to play? Try these video lessons and learn fast Use The Force lessons
        
↑ Back to top | Tablatures and chords for acoustic guitar and electric guitar, ukulele, drums are parodies/interpretations of the original songs. You may use it for private study, scholarship, research or language learning purposes only