» » »

Jamiroquai - Stop Dont Panic Bass

Artists:  A B C D E F G H I J K L M N O P Q R S T U V W X Y Z # 

Stop Dont Panic Bass

(ver. 2) Click to play this song!
Jamiroquai
 Rating:
4/5 (4 votes)
                -------------------------------------------------------------------------------
			     STOP DON'T PANIC - Jamiroquai
-------------------------------------------------------------------------------


Tuning: Drop D

0:09
(Heavy Distortion)
G|-------------------------------|
D|-------------------------------|
A|-------------------------------|
D|-1-1-1---1-1-1---6-6-6---1-1-1-|

G|------------------------------------|
D|------------------------------------|
A|------------------------------------|
D|-1-1-1---1-1-1---6-6-6-4-6-11111111-|

0:43
G|--------------------------------------------|--------------------------------------------|
D|-----------------2-2-----5--------0---0-0---|-----------------2-2-----7--------0---0-0---|
A|--------------------------------------------|--------------------------------------------|
D|-2-2--0--2-2-2---------5----5-5-----0-----0-|-2-2--0--2-2-2---------7----7-7-----0-----0-|

1:00
G|--------------7--0-2--|------------7--6--7--|
D|----------------------|---------------------|
A|-77--7-5-7---5--------|-77--7-5-7--5--4--5--|
D|----------------1-3---|---------------------|

1:09
(Heavy Distortion)
G|-------------------------------|
D|-------------------------------|
A|-------------------------------|
D|-1-1-1---1-1-1---6-6-6---1-1-1-|

1:43
G|--------------------------------------------|--------------------------------------------|
D|-----------------2-2-----5--------0---0-0---|-----------------2-2-----7--------0---0-0---|
A|--------------------------------------------|--------------------------------------------|
D|-2-2--0--2-2-2---------5----5-5-----0-----0-|-2-2--0--2-2-2---------7----7-7-----0-----0-|

2:17
G|--------------7--0-2--|------------7--6--7--|
D|----------------------|---------------------|
A|-77--7-5-7---5--------|-77--7-5-7--5--4--5--| x2
D|----------------1-3---|---------------------|

2:34
G|--------------------------------------------|--------------------------------------------|
D|-----------------2-2-----5--------0---0-0---|-----------------2-2-----7--------0---0-0---|
A|--------------------------------------------|--------------------------------------------|
D|-2-2--0--2-2-2---------5----5-5-----0-----0-|-2-2--0--2-2-2---------7----7-7-----0-----0-|

2:51
(Heavy Distortion)
G|-------------------------------|
D|-------------------------------|
A|-------------------------------|
D|-1-1-1---1-1-1---6-6-6---1-1-1-|

3:06
STOP! DON'T PANIC

3:25
G|--------------------------------------------|--------------------------------------------|
D|-----------------2-2-----5--------0---0-0---|-----------------2-2-----7--------0---0-0---|
A|--------------------------------------------|--------------------------------------------|
D|-2-2--0--2-2-2---------5----5-5-----0-----0-|-2-2--0--2-2-2---------7----7-7-----0-----0-|

03:42
G|--------------------|
D|-4-4--2-------------|
A|--------------------|
D|--------2---2-0-2-2-|

3:58
G|------------------|
D|-4-4--2-2---2-0-2-|
A|------------------|
D|------------------|

===============================================================================
            
Submit corrections

↑ Back to top | Tablatures and chords for acoustic guitar and electric guitar, ukulele, drums are parodies/interpretations of the original songs. You may use it for private study, scholarship, research or language learning purposes only