Home » J » Jamiroquai »

Jamiroquai - Carla Bass Tabs

Artists:  A B C D E F G H I J K L M N O P Q R S T U V W X Y Z # 

Carla Bass Tabs

(ver. 1) Click to play this song!
Jamiroquai
 Rating:
4.3/5 (12 votes)
                  1 e + a  2 e + a  3 e + a  4 e + a ...
G|--------|--------|--------|--------|--------|--------|--------|--------|
D|--------|-------/|9-----7-|----9---|--------|-------/|9-----7-|----9---|
A|--------|--5h7---|--------|--------|--------|--5h7---|--------|--------|
E|5-----5-|--------|--------|--------|5-----5-|--------|--------|--------|

G|--------|--------|--------|--------|--------|--------|--------|--------|
D|--------|-------/|10----9-|----10--|--------|-------/|10----9-|----10--|
A|--------|--7h8---|--------|--------|--------|--7h8---|--------|--------|
E|7-----7-|--------|--------|--------|7-----7-|--------|--------|--------|

G|--------|-------/|9-----7-|----9---|--------|-------/|9-----7-|----9---|
D|--------|--5h7---|--------|--------|--------|--5h7---|--------|--------|
A|5-----5-|--------|--------|--------|5-----5-|--------|--------|--------|
E|--------|--------|--------|--------|--------|--------|--------|--------|

G|--------|--------|--------|--------|--------|--------|--------|--------|
D|--------|-------/|10----9-|----10--|--------|------5-|7---5---|--------|back to start
A|--------|--7h8---|--------|--------|--------|--6h7---|------7-|6-5-----|
E|7-----7-|--------|--------|--------|6-----6-|--------|--------|----7-5-|
                                                                       ??
                                 
Submit corrections

↑ Back to top | Tablatures and chords for acoustic guitar and electric guitar, ukulele, drums are parodies/interpretations of the original songs. You may use it for private study, scholarship, research or language learning purposes only