» » »

Jamie Lawson - Wasnt Expecting That Tabs

Artists:  A B C D E F G H I J K L M N O P Q R S T U V W X Y Z # 

Wasnt Expecting That Tabs

(ver. 1) Click to play this song!
Jamie Lawson
 Rating:
3.3/5 (24 votes)

 Wasnt Expecting That  lessons Tabs too difficult? Try these video lessons and learn fast
 
                Intro:

e|-0-----x---0-----x---0-----x---x---x---x---x---x---x---0-----x---0---0-0---x---x-x----||
B|-1-----x---0-----x---1-----x---0---x---1---x---0---x---1-----x---1---1-1---0---0-0----||
G|-0-----x---0-----x---2-----x---0---x---2---x---0---x---0-----x---2---2-2---0---0-0---o||
D|-0h2---x---0h2---x---0h2---x---0---x---3---x---0---x---0h2---x---2---2-2---0---0-0---o||
A|-3-----x---2-----x---0-----x---2---x---3---x---2---x---3-----x---0---0-0---2---2-2----||
E|-------x---0-----x---------x---3---x---1---x---3---x---------x-------------3---3-3----||

Verse:

e|-0-----x---0-----x---0-----x---x---x---x---x---x---x---0-----x---0---0-0---x---x-x----|
B|-1-----x---0-----x---1-----x---0---x---1---x---0---x---1-----x---1---1-1---0---0-0----|
G|-0-----x---0-----x---2-----x---0---x---2---x---0---x---0-----x---2---2-2---0---0-0----|
D|-0h2---x---0h2---x---0h2---x---0---x---3---x---0---x---0h2---x---2---2-2---0---0-0----|
A|-3-----x---2-----x---0-----x---2---x---3---x---2---x---3-----x---0---0-0---2---2-2----|
E|-------x---0-----x---------x---3---x---1---x---3---x---------x-------------3---3-3----|

e|-0-----x---0-----x---0-----x---x---x---x---x---x---x---0--------|
B|-1-----x---0-----x---1-----x---0---x---1---x---0---x---1--------|
G|-0-----x---0-----x---2-----x---0---x---2---x---0---x---0--------|
D|-0h2---x---0h2---x---0h2---x---0---x---3---x---0---x---0h2------| x 2
A|-3-----x---2-----x---0-----x---2---x---3---x---2---x---3--------|
E|-------x---0-----x---------x---3---x---1---x---3---x------------|

Chorus:

e|-1---x---1---x---0---x---0---x---1---x---3---x---0-----x---0--0--0---x---0---x---0---x---0---x---1---x---|
B|-1---x---1---x---0---x---0---x---1---x---0---x---1-----x---1--1--1---x---1---x---0---x---0---x---1---x---|
G|-2---x---2---x---0---x---1---x---2---x---0---x---0-----x---0--0--2---x---2---x---0---x---0---x---2---x---|
D|-0---x---0---x---2---x---2---x---3---x---0---x---0h2---x---2--0--2---x---2---x---2---x---2---x---3---x---|
A|-3---x---3---x---2---x---2---x---3---x---2---x---3-----x---3--2--0---x---0---x---2---x---2---x---3---x---|
E|-----x-------x---0---x---0---x---1---x---3---x---------x-------------x-------x---0---x---0---x---1---x---|

e|---1---x---3---x---3---x---3---x---3---|
B|---1---x---0---x---0---x---1---x---1---|
G|---2---x---0---x---0---x---0---x---0---|
D|---3---x---0---x---0---x---0---x---0---|
A|---3---x---2---x---2---x---2---x---2---|
E|---1---x---3---x---3---x---3---x---3---|

Verse:

e|-0-----x---0-----x---0-----x---x---x---x---x---x---x---0-----x---0---0-0---x---x-x----|
B|-1-----x---0-----x---1-----x---0---x---1---x---0---x---1-----x---1---1-1---0---0-0----|
G|-0-----x---0-----x---2-----x---0---x---2---x---0---x---0-----x---2---2-2---0---0-0----|
D|-0h2---x---0h2---x---0h2---x---0---x---3---x---0---x---0h2---x---2---2-2---0---0-0----|
A|-3-----x---2-----x---0-----x---2---x---3---x---2---x---3-----x---0---0-0---2---2-2----|
E|-------x---0-----x---------x---3---x---1---x---3---x---------x-------------3---3-3----|

e|-0-----x---0-----x---0-----x---x---x---x---x---x---x---0--------|
B|-1-----x---0-----x---1-----x---0---x---1---x---0---x---1--------|
G|-0-----x---0-----x---2-----x---0---x---2---x---0---x---0--------|
D|-0h2---x---0h2---x---0h2---x---0---x---3---x---0---x---0h2------| 
A|-3-----x---2-----x---0-----x---2---x---3---x---2---x---3--------|
E|-------x---0-----x---------x---3---x---1---x---3---x------------|

Chorus:

e|-1---x---1---x---0---x---0---x---1---x---3---x---0-----x---0--0--0---x---0---x---0---x---0---x---1---x---|
B|-1---x---1---x---0---x---0---x---1---x---0---x---1-----x---1--1--1---x---1---x---0---x---0---x---1---x---|
G|-2---x---2---x---0---x---1---x---2---x---0---x---0-----x---0--0--2---x---2---x---0---x---0---x---2---x---|
D|-0---x---0---x---2---x---2---x---3---x---0---x---0h2---x---2--0--2---x---2---x---2---x---2---x---3---x---|
A|-3---x---3---x---2---x---2---x---3---x---2---x---3-----x---3--2--0---x---0---x---2---x---2---x---3---x---|
E|-----x-------x---0---x---0---x---1---x---3---x---------x-------------x-------x---0---x---0---x---1---x---|

e|---1---x---3---x---3---x---3---x---3---|
B|---1---x---0---x---0---x---1---x---1---|
G|---2---x---0---x---0---x---0---x---0---|
D|---3---x---0---x---0---x---0---x---0---|
A|---3---x---2---x---2---x---2---x---2---|
E|---1---x---3---x---3---x---3---x---3---|

Instrumental:

e|-0-----x---0-----x---0-----x---x---x---x---x---x---x---0-----x---0---0---|
B|-1-----x---0-----x---1-----x---0---x---1---x---0---x---1-----x---1---1---|
G|-0-----x---0-----x---2-----x---0---x---2---x---0---x---0-----x---0---0---|
D|-0h2---x---0h2---x---0h2---x---0---x---3---x---0---x---0h2---x---2---0---| 
A|-3-----x---2-----x---0-----x---2---x---3---x---2---x---3-----x---3---2---|
E|-------x---0-----x---------x---3---x---1---x---3---x---------x-----------|

Bridge:

e|-x---x---x---0---0---x---x---x---1---x---x---x---0---x---0---0---x---x---x---0---0---x---x---x---1---x---|
B|-0---x---0---0---1---x---0---x---1---x---0---x---1---x---1---1---0---x---0---0---1---x---0---x---1---x---|
G|-0---x---0---1---2---x---0---x---2---x---0---x---0---x---0---0---0---x---0---1---2---x---0---x---2---x---|
D|-0---x---0---0---2---x---0---x---3---x---0---x---0h2-x---2---0---0---x---0---0---2---x---0---x---3---x---|
A|-2---x---2---2---0---x---2---x---3---x---2---x---3---x---3---2---2---x---2---2---0---x---2---x---3---x---|
E|-3---x---3---0-------x---3---x---1---x---3---x-------x-----------3---x---3---0-------x---3---x---1---x---|

e|-1---x---x---x---x---x---x-------------------|
B|-1---x---0---x---0---x---0-------------------|
G|-2---x---0---x---0---x---0---0---0-----------|
D|-3---x---0---x---0---x---3---3---3---3p2p0---|
A|-3---x---2---x---2---x---x---x---x-----------|
E|-1---x---3---x---3---x---3---3---3-----------|

Verse:

e|-0-----x---0-----x---0-----x---x---x---x---x---x---x---0-----x---0---0-0---x---x-x----|
B|-1-----x---0-----x---1-----x---0---x---1---x---0---x---1-----x---1---1-1---0---0-0----|
G|-0-----x---0-----x---2-----x---0---x---2---x---0---x---0-----x---2---2-2---0---0-0----|
D|-0h2---x---0h2---x---0h2---x---0---x---3---x---0---x---0h2---x---2---2-2---0---0-0----|
A|-3-----x---2-----x---0-----x---2---x---3---x---2---x---3-----x---0---0-0---2---2-2----|
E|-------x---0-----x---------x---3---x---1---x---3---x---------x-------------3---3-3----|

e|-0-----x---0-----x---0-----x---x---x---x---x---x---x---0--------|
B|-1-----x---0-----x---1-----x---0---x---1---x---0---x---1--------|
G|-0-----x---0-----x---2-----x---0---x---2---x---0---x---0--------|
D|-0h2---x---0h2---x---0h2---x---0---x---3---x---0---x---0h2------| x 2
A|-3-----x---2-----x---0-----x---2---x---3---x---2---x---3--------|
E|-------x---0-----x---------x---3---x---1---x---3---x------------|
            
Submit corrections


        Wasnt Expecting That  lessons Hard to play? Try these video lessons and learn fast Wasnt Expecting That  lessons
        
↑ Back to top | Tablatures and chords for acoustic guitar and electric guitar, ukulele, drums are parodies/interpretations of the original songs. You may use it for private study, scholarship, research or language learning purposes only