Home » J » Jamie Foxx »

Jamie Foxx - Fly Love Tabs

Artists:  A B C D E F G H I J K L M N O P Q R S T U V W X Y Z # 

Fly Love Tabs

(ver. 1) Click to play this song!
Jamie Foxx
(Whistling) 

e|--------------------| 
B|---------0--3-------|
G|------0-------3-----|
D|---2----------------|
A|--------------------|
E|--------------------|


e|------------|----------------------|----------|---------------|--------|-----2--------0-----3--2--0---0--| 
B|----0-------|-------0-------0------|-----0----|----0-------0--|----0---|-----0--------0-------------3---2|
G|----2-------|-------2-------2------|-----1----|----1-------1--|----0---|-----0--------0------------------|
D|----2-------|-------2-------2------|-----0----|----0-------0--|----0---|---------------------------------|
A|------------|----------------------|----------|---------------|--------|---------------------------------|
E|------------|-----------2----------|----------|---------1-----|--------|---------0----------3------------|

              ^
              |
              |
       Slap on the strings

Wasn't really thinkin', wasn't lookin' , wasn't searching for an answer

       D                                                           Em                            Gm
e|----------2----------------------2-----------------------2---------------------0-----------------3------3| 
B|-----3-------3--------------3-------3-------------3--------3--------------0------0---------3-------3-----|
G|-------2-------2--------------2-------2--------------2-------2---------------0-----0----------3------3---|
D|--0---------------------0-----------------------0--------------------------------------------------------|
A|---------------------------------------------------------------------------------------------------------|
E|-----------------------------------------------------------------------0-----------------3---------------|
 
[Intro Tab]
 But instead of the usual ending, replace it with this for the rest of the song

   
In the moonlight
When I saw your face
            
e|-----------------0-----| 
B|---3--------2------2---|
G|------2--------------2-|
D|--------2--------------|
A|---0--------0----------|
E|-----------------------|

Basically just finger pick the little bridge/pre-chorus part of the songs

The chords for that are G, Em then Gm twice.




            
Submit corrections

↑ Back to top | Tablatures and chords for acoustic guitar and electric guitar, ukulele, drums are parodies/interpretations of the original songs. You may use it for private study, scholarship, research or language learning purposes only