Home » J » Jamestown Story »

Jamestown Story - Scarred Tabs

Artists:  A B C D E F G H I J K L M N O P Q R S T U V W X Y Z # 

Scarred Tabs

(ver. 1) Click to play this song!
Jamestown Story
[Intro]

        Am                         F                         C
E|--0--0--0--0-----------------1--1--1--1----------------0--0--0--0-----------------
B|--1--1--1--1-----------------1--1--1--1----------------1--1--1--1-----------------
G|--2--2--2--2-------0h2-------2--2--2--2--0----0--0--0--0--0--0--0--0--0--0--0-----
D|--2--2--2--2--0h2-------2p0--3--3--3--3--5h7--5--2--0--2--2--2--2--5--3--2--0-----
A|--0--0--0--0-----------------3--3--3--3----------------3--3--3--3-----------------
E|--0--0--0--0-----------------1--1--1--1----------------0--0--0--0-----------------
 
        G                      Am                          F
E|--3--3--3--3--------------0--0--0--0-----------------1--1--1--1-------------------
B|--3--3--3--3--------------1--1--1--1-----------------1--1--1--1-------------------
G|--0--0--0--0--------------2--2--2--2-------0h2-------2--2--2--2--0----0--0--0-----
D|--0--0--0--0--------------2--2--2--2--0h2-------2p0--3--3--3--3--5h7--5--2--0-----
A|--2--2--2--2--5--3--2--0--0--0--0--0-----------------3--3--3--3-------------------
E|--3--3--3--3--------------0--0--0--0-----------------1--1--1--1-------------------

       C                        G
E|--0--0--0--0--------------3--3--3--3------------|
B|--1--1--1--1--------------3--3--3--3------------|
G|--0--0--0--0--0--0--0--0--0--0--0--0--0---------|
D|--2--2--2--2--5--3--2--0--0--0--0--0--0---------|
A|--3--3--3--3--------------2--2--2--2--5---------|
E|--0--0--0--0--------------3--3--3--3--0---------|


[Verse 1]

          Am                      F                             C
E|--0--0--0--0--0--0--0--0--0--0--1--1--1--1--1--1--1--1--1--1--0--0--0--0--0--0--0--0--0--0-----
B|--1--1--1--1--1--1--1--1--1--1--1--1--1--1--1--1--1--1--1--1--1--1--1--1--1--1--1--1--1--1-----
G|--2--2--2--2--2--2--2--2--2--2--2--2--2--2--2--2--2--2--2--2--0--0--0--0--0--0--0--0--0--0-----
D|--2--2--2--2--2--2--2--2--2--2--3--3--3--3--3--3--3--3--3--3--2--2--2--2--2--2--2--2--2--2-----
A|--0--0--0--0--0--0--0--0--0--0--3--3--3--3--3--3--3--3--3--3--3--3--3--3--3--3--3--3--3--3-----
E|--0--0--0--0--0--0--0--0--0--0--1--1--1--1--1--1--1--1--1--1--0--0--0--0--0--0--0--0--0--0-----

    G
E|--3--3--3--3--3--3--3--3--3--3---------|
B|--3--3--3--3--3--3--3--3--3--3---------|
G|--0--0--0--0--0--0--0--0--0--0---------|  x2
D|--0--0--0--0--0--0--0--0--0--0---------| 
A|--2--2--2--2--2--2--2--2--2--2---------|
E|--3--3--3--3--3--3--3--3--3--3---------|

       F                          C             
E|--1--1--1--1--1--1--1--1--1--1--0--0--0--0--0--0--0--0--0--0-----
B|--1--1--1--1--1--1--1--1--1--1--1--1--1--1--1--1--1--1--1--1-----
G|--2--2--2--2--2--2--2--2--2--2--0--0--0--0--0--0--0--0--0--0-----
D|--3--3--3--3--3--3--3--3--3--3--2--2--2--2--2--2--2--2--2--2-----
A|--3--3--3--3--3--3--3--3--3--3--3--3--3--3--3--3--3--3--3--3-----
E|--1--1--1--1--1--1--1--1--1--1--0--0--0--0--0--0--0--0--0--0-----

    G          
E|--3--3--3--3--3--3--3--3--3--3---------|
B|--3--3--3--3--3--3--3--3--3--3---------|
G|--0--0--0--0--0--0--0--0--0--0---------|  x2
D|--0--0--0--0--0--0--0--0--0--0---------| 
A|--2--2--2--2--2--2--2--2--2--2---------|
E|--3--3--3--3--3--3--3--3--3--3---------|


[Chorus]

              Am                                 F        
E|--0--0--0--0--0--0--0--0--0--0--0--0--0--0--0--1--1--1--1--1--1--1--1--1--1--1--1--1--1--1-----|
B|--1--1--1--1--1--1--1--1--1--1--1--1--1--1--1--1--1--1--1--1--1--1--1--1--1--1--1--1--1--1-----|
G|--2--2--2--2--2--2--2--2--2--2--2--2--2--2--2--2--2--2--2--2--2--2--2--2--2--2--2--2--2--2-----|
D|--2--2--2--2--2--2--2--2--2--2--2--2--2--2--2--3--3--3--3--3--3--3--3--3--3--3--3--3--3--3-----|
A|--0--0--0--0--0--0--0--0--0--0--0--0--0--0--0--3--3--3--3--3--3--3--3--3--3--3--3--3--3--3-----|
E|--0--0--0--0--0--0--0--0--0--0--0--0--0--0--0--1--1--1--1--1--1--1--1--1--1--1--1--1--1--1-----|

    C                                            G           
E|--0--0--0--0--0--0--0--0--0--0--0--0--0--0--0--3--3--3--3--3--3--3--3--3--3--3--3--3--3--3---|
B|--1--1--1--1--1--1--1--1--1--1--1--1--1--1--1--3--3--3--3--3--3--3--3--3--3--3--3--3--3--3---|
G|--0--0--0--0--0--0--0--0--0--0--0--0--0--0--0--0--0--0--0--0--0--0--0--0--0--0--0--0--0--0---|
D|--2--2--2--2--2--2--2--2--2--2--2--2--2--2--2--0--0--0--0--0--0--0--0--0--0--0--0--0--0--0---|
A|--3--3--3--3--3--3--3--3--3--3--3--3--3--3--3--2--2--2--2--2--2--2--2--2--2--2--2--2--2--2---|
E|--0--0--0--0--0--0--0--0--0--0--0--0--0--0--0--3--3--3--3--3--3--3--3--3--3--3--3--3--3--3---|

        Am                         F                         C
E|--0--0--0--0-----------------1--1--1--1----------------0--0--0--0-----------------|
B|--1--1--1--1-----------------1--1--1--1----------------1--1--1--1-----------------|
G|--2--2--2--2-------0h2-------2--2--2--2--0----0--0--0--0--0--0--0--0--0--0--0-----|
D|--2--2--2--2--0h2-------2p0--3--3--3--3--5h7--5--2--0--2--2--2--2--5--3--2--0-----|
A|--0--0--0--0-----------------3--3--3--3----------------3--3--3--3-----------------|
E|--0--0--0--0-----------------1--1--1--1----------------0--0--0--0-----------------|

        G
E|--3--3--3--3-----------------|
B|--3--3--3--3-----------------|
G|--0--0--0--0-----------------|
D|--0--0--0--0-----------------|
A|--2--2--2--2--5--3--2--0-----|
E|--3--3--3--3-----------------|


[Verse 2]

            Am                    F                             C        
E|--0--0--0--0--0--0--0--0--0--0--1--1--1--1--1--1--1--1--1--1--0--0--0--0--0--0--0--0--0--0-----|
B|--1--1--1--1--1--1--1--1--1--1--1--1--1--1--1--1--1--1--1--1--1--1--1--1--1--1--1--1--1--1-----|
G|--2--2--2--2--2--2--2--2--2--2--2--2--2--2--2--2--2--2--2--2--0--0--0--0--0--0--0--0--0--0-----|
D|--2--2--2--2--2--2--2--2--2--2--3--3--3--3--3--3--3--3--3--3--2--2--2--2--2--2--2--2--2--2-----|
A|--0--0--0--0--0--0--0--0--0--0--3--3--3--3--3--3--3--3--3--3--3--3--3--3--3--3--3--3--3--3-----|
E|--0--0--0--0--0--0--0--0--0--0--1--1--1--1--1--1--1--1--1--1--0--0--0--0--0--0--0--0--0--0-----|

                G
E|--3--3--3--3--3--3--3--3--3--3---------|
B|--3--3--3--3--3--3--3--3--3--3---------|
G|--0--0--0--0--0--0--0--0--0--0---------| 
D|--0--0--0--0--0--0--0--0--0--0---------| 
A|--2--2--2--2--2--2--2--2--2--2---------|
E|--3--3--3--3--3--3--3--3--3--3---------|

             Am                   C         
E|--0--0--0--0--0--0--0--0--0--0--0--0--0--0--0--0--0--0--0--0-----|
B|--1--1--1--1--1--1--1--1--1--1--1--1--1--1--1--1--1--1--1--1-----|
G|--2--2--2--2--2--2--2--2--2--2--0--0--0--0--0--0--0--0--0--0-----|
D|--2--2--2--2--2--2--2--2--2--2--2--2--2--2--2--2--2--2--2--2-----|
A|--0--0--0--0--0--0--0--0--0--0--3--3--3--3--3--3--3--3--3--3-----|
E|--0--0--0--0--0--0--0--0--0--0--0--0--0--0--0--0--0--0--0--0-----|

                G
E|--3--3--3--3--3--3--3--3--3--3---------|
B|--3--3--3--3--3--3--3--3--3--3---------|
G|--0--0--0--0--0--0--0--0--0--0---------| 
D|--0--0--0--0--0--0--0--0--0--0---------| 
A|--2--2--2--2--2--2--2--2--2--2---------|
E|--3--3--3--3--3--3--3--3--3--3---------|

                F                 C                             Am             
E|--1--1--1--1--1--1--1--1--1--1--0--0--0--0--0--0--0--0--0--0--0--0--0--0--0--0--0--0--0--0--------|
B|--1--1--1--1--1--1--1--1--1--1--1--1--1--1--1--1--1--1--1--1--1--1--1--1--1--1--1--1--1--1--------|
G|--2--2--2--2--2--2--2--2--2--2--0--0--0--0--0--0--0--0--0--0--2--2--2--2--2--2--2--2--2--2--------|
D|--3--3--3--3--3--3--3--3--3--3--2--2--2--2--2--2--2--2--2--2--2--2--2--2--2--2--2--2--2--2--------|
A|--3--3--3--3--3--3--3--3--3--3--3--3--3--3--3--3--3--3--3--3--0--0--0--0--0--0--0--0--0--0--------|
E|--1--1--1--1--1--1--1--1--1--1--0--0--0--0--0--0--0--0--0--0--0--0--0--0--0--0--0--0--0--0--------|

                G
E|--3--3--3--3--3--3--3--3--3--3---------|
B|--3--3--3--3--3--3--3--3--3--3---------|
G|--0--0--0--0--0--0--0--0--0--0---------| 
D|--0--0--0--0--0--0--0--0--0--0---------|  x2
A|--2--2--2--2--2--2--2--2--2--2---------|
E|--3--3--3--3--3--3--3--3--3--3---------|


[Chorus]

                Am                               F             
E|--0--0--0--0--0--0--0--0--0--0--0--0--0--0--0--1--1--1--1--1--1--1--1--1--1--1--1--1--1--1-----|
B|--1--1--1--1--1--1--1--1--1--1--1--1--1--1--1--1--1--1--1--1--1--1--1--1--1--1--1--1--1--1-----|
G|--2--2--2--2--2--2--2--2--2--2--2--2--2--2--2--2--2--2--2--2--2--2--2--2--2--2--2--2--2--2-----|
D|--2--2--2--2--2--2--2--2--2--2--2--2--2--2--2--3--3--3--3--3--3--3--3--3--3--3--3--3--3--3-----|
A|--0--0--0--0--0--0--0--0--0--0--0--0--0--0--0--3--3--3--3--3--3--3--3--3--3--3--3--3--3--3-----|
E|--0--0--0--0--0--0--0--0--0--0--0--0--0--0--0--1--1--1--1--1--1--1--1--1--1--1--1--1--1--1-----|

                 C                               G             
E|--0--0--0--0--0--0--0--0--0--0--0--0--0--0--0--3--3--3--3--3--3--3--3--3--3--3--3--3--3--3---|
B|--1--1--1--1--1--1--1--1--1--1--1--1--1--1--1--3--3--3--3--3--3--3--3--3--3--3--3--3--3--3---|
G|--0--0--0--0--0--0--0--0--0--0--0--0--0--0--0--0--0--0--0--0--0--0--0--0--0--0--0--0--0--0---|
D|--2--2--2--2--2--2--2--2--2--2--2--2--2--2--2--0--0--0--0--0--0--0--0--0--0--0--0--0--0--0---|
A|--3--3--3--3--3--3--3--3--3--3--3--3--3--3--3--2--2--2--2--2--2--2--2--2--2--2--2--2--2--2---|
E|--0--0--0--0--0--0--0--0--0--0--0--0--0--0--0--3--3--3--3--3--3--3--3--3--3--3--3--3--3--3---|


[Bridge]

                C                                        G                         
E|-0--0--0--0--0--0--0--0--0--0--0--0--0--0--0--0--0--0--3--3--3--3--3--3--3--3--3--3--3--3--3--3--3--3--3--3|
B|-1--1--1--1--1--1--1--1--1--1--1--1--1--1--1--1--1--1--3--3--3--3--3--3--3--3--3--3--3--3--3--3--3--3--3--3|
G|-0--0--0--0--0--0--0--0--0--0--0--0--0--0--0--0--0--0--0--0--0--0--0--0--0--0--0--0--0--0--0--0--0--0--0--0|
D|-2--2--2--2--2--2--2--2--2--2--2--2--2--2--2--2--2--2--0--0--0--0--0--0--0--0--0--0--0--0--0--0--0--0--0--0|
A|-3--3--3--3--3--3--3--3--3--3--3--3--3--3--3--3--3--3--2--2--2--2--2--2--2--2--2--2--2--2--2--2--2--2--2--2|
E|-0--0--0--0--0--0--0--0--0--0--0--0--0--0--0--0--0--0--3--3--3--3--3--3--3--3--3--3--3--3--3--3--3--3--3--3|

               F                                         G                         
E|-1--1--1--1--1--1--1--1--1--1--1--1--1--1--1--1--1--1--3--3--3--3--3--3--3--3--3--3--3--3--3--3--3--3--3--3|
B|-1--1--1--1--1--1--1--1--1--1--1--1--1--1--1--1--1--1--3--3--3--3--3--3--3--3--3--3--3--3--3--3--3--3--3--3|
G|-2--2--2--2--2--2--2--2--2--2--2--2--2--2--2--2--2--2--0--0--0--0--0--0--0--0--0--0--0--0--0--0--0--0--0--0|
D|-3--3--3--3--3--3--3--3--3--3--3--3--3--3--3--3--3--3--0--0--0--0--0--0--0--0--0--0--0--0--0--0--0--0--0--0|
A|-3--3--3--3--3--3--3--3--3--3--3--3--3--3--3--3--3--3--2--2--2--2--2--2--2--2--2--2--2--2--2--2--2--2--2--2|
E|-1--1--1--1--1--1--1--1--1--1--1--1--1--1--1--1--1--1--3--3--3--3--3--3--3--3--3--3--3--3--3--3--3--3--3--3|

               F                                         G                        
E|-1--1--1--1--1--1--1--1--1--1--1--1--1--1--1--1--1--1--3--3--3--3--3--3--3--3--3--3--3--3--3--3--3--3--3--3|
B|-1--1--1--1--1--1--1--1--1--1--1--1--1--1--1--1--1--1--3--3--3--3--3--3--3--3--3--3--3--3--3--3--3--3--3--3|
G|-2--2--2--2--2--2--2--2--2--2--2--2--2--2--2--2--2--2--0--0--0--0--0--0--0--0--0--0--0--0--0--0--0--0--0--0|
D|-3--3--3--3--3--3--3--3--3--3--3--3--3--3--3--3--3--3--0--0--0--0--0--0--0--0--0--0--0--0--0--0--0--0--0--0|
A|-3--3--3--3--3--3--3--3--3--3--3--3--3--3--3--3--3--3--2--2--2--2--2--2--2--2--2--2--2--2--2--2--2--2--2--2|
E|-1--1--1--1--1--1--1--1--1--1--1--1--1--1--1--1--1--1--3--3--3--3--3--3--3--3--3--3--3--3--3--3--3--3--3--3|


[Chorus]

                   Am                            F             
E|--0--0--0--0--0--0--0--0--0--0--0--0--0--0--0--1--1--1--1--1--1--1--1--1--1--1--1--1--1--1-----|
B|--1--1--1--1--1--1--1--1--1--1--1--1--1--1--1--1--1--1--1--1--1--1--1--1--1--1--1--1--1--1-----|
G|--2--2--2--2--2--2--2--2--2--2--2--2--2--2--2--2--2--2--2--2--2--2--2--2--2--2--2--2--2--2-----|
D|--2--2--2--2--2--2--2--2--2--2--2--2--2--2--2--3--3--3--3--3--3--3--3--3--3--3--3--3--3--3-----|
A|--0--0--0--0--0--0--0--0--0--0--0--0--0--0--0--3--3--3--3--3--3--3--3--3--3--3--3--3--3--3-----|
E|--0--0--0--0--0--0--0--0--0--0--0--0--0--0--0--1--1--1--1--1--1--1--1--1--1--1--1--1--1--1-----|

                    C                            G             
E|--0--0--0--0--0--0--0--0--0--0--0--0--0--0--0--3--3--3--3--3--3--3--3--3--3--3--3--3--3--3---|
B|--1--1--1--1--1--1--1--1--1--1--1--1--1--1--1--3--3--3--3--3--3--3--3--3--3--3--3--3--3--3---|
G|--0--0--0--0--0--0--0--0--0--0--0--0--0--0--0--0--0--0--0--0--0--0--0--0--0--0--0--0--0--0---|
D|--2--2--2--2--2--2--2--2--2--2--2--2--2--2--2--0--0--0--0--0--0--0--0--0--0--0--0--0--0--0---|
A|--3--3--3--3--3--3--3--3--3--3--3--3--3--3--3--2--2--2--2--2--2--2--2--2--2--2--2--2--2--2---|
E|--0--0--0--0--0--0--0--0--0--0--0--0--0--0--0--3--3--3--3--3--3--3--3--3--3--3--3--3--3--3---|


[Outro]

        Am                         F                         C
E|--0--0--0--0-----------------1--1--1--1----------------0--0--0--0-----------------|
B|--1--1--1--1-----------------1--1--1--1----------------1--1--1--1-----------------|
G|--2--2--2--2-------0h2-------2--2--2--2--0----0--0--0--0--0--0--0--0--0--0--0-----|
D|--2--2--2--2--0h2-------2p0--3--3--3--3--5h7--5--2--0--2--2--2--2--5--3--2--0-----|
A|--0--0--0--0-----------------3--3--3--3----------------3--3--3--3-----------------|
E|--0--0--0--0-----------------1--1--1--1----------------0--0--0--0-----------------|

        G                      Am                          F
E|--3--3--3--3--------------0--0--0--0-----------------1--1--1--1-------------------|
B|--3--3--3--3--------------1--1--1--1-----------------1--1--1--1-------------------|
G|--0--0--0--0--------------2--2--2--2-------0h2-------2--2--2--2--0----0--0--0-----|
D|--0--0--0--0--------------2--2--2--2--0h2-------2p0--3--3--3--3--5h7--5--2--0-----|
A|--2--2--2--2--5--3--2--0--0--0--0--0-----------------3--3--3--3-------------------|
E|--3--3--3--3--------------0--0--0--0-----------------1--1--1--1-------------------|
   
       C
E|--0--0--0--0--------------0------|
B|--1--1--1--1--------------1------|
G|--0--0--0--0--0--0--0--0--0------|
D|--2--2--2--2--5--3--2--0--2------|
A|--3--3--3--3--------------3------|
E|--0--0--0--0--------------0------|            
Submit corrections

↑ Back to top | Tablatures and chords for acoustic guitar and electric guitar, ukulele, drums are parodies/interpretations of the original songs. You may use it for private study, scholarship, research or language learning purposes only