» » »

Jamestown Story - Come Back Home Home Is Where The Heart Is Tabs

Artists:  A B C D E F G H I J K L M N O P Q R S T U V W X Y Z # 

Come Back Home Home Is Where The Heart Is Tabs

(ver. 1) Click to play this song!
Jamestown Story
 Rating:
3/5 (6 votes)


 Come Back Home Home Is Where The Heart Is lessons Tabs too difficult? Try these video lessons and learn fast
 
                **************************************************
--------------------------------------------------

I just figured out the tabs for this song!
And I want to share this with you guys =]

>>> Standard tuning <<<

--------------------------------------------------
**************************************************

Intro:
                     x2
e|--------------------|
B|--------------------|
G|----14---------9----|
D|----14----7----9----|
A|----12----7----7----|
E|----------5---------|


Verse 1:

And I'm back to the way that it was again,
And now I'm looking for a reason to change this.
And I would've never thought that this was over, but
I'm too familiar with the second chances and 
I hope you feel the same.

e|----------------------------------------|
B|----------------------------------------|
G|----14--------14------14------14--------|
D|----14------14--14--14--14--14--14--14--|
A|----12----12------12------12------12----|
E|----------------------------------------|
                                                        
e|----------------------------------------------------------| 
B|----------------------------------------------------------|  
G|----------------9---9-------14------14------14------14----|  
D|------7---7----9-9-9-9----14--14--14--14--14--14--14--14--|
A|-----7-7-7-7--7---7-----12------12------12------12--------|     
E|----5---5-------------------------------------------------|

e|------------------------|
B|------------------------|
G|----------------9---9---|
D|------7---7----9-9-9-9--|
A|-----7-7-7-7--7---7-----|
E|----5---5---------------|

Pre-Chorus 1:

I know you said that this will not be permanent.
If that's correct, then why's this feel like it's the end?

                   x2
e|------------------|-------------|
B|------------------|-------------|
G|----14---------9--|-x--x--x--x--|
D|----14----7----9--|-x--x--x--x--|
A|----12----7----7--|-x--x--x--x--|
E|----------5-------|-------------|

Chorus:

Come back home to me. (because my life just isn't)
What it used to be. (without you here)
It kills me just to see
That a part of me is gone

                   x3
e|------------------|-----|
B|------------------|-----|
G|----14---------9--|-14--|
D|----14----7----9--|-14--|
A|----12----7----7--|-12--|
E|----------5-------|-----|

 (that a part of me is gone)

e|-------------|
B|-------------|
G|-x--x--x--x--|
D|-x--x--x--x--|
A|-x--x--x--x--|
E|-------------|

                     x2
e|--------------------|
B|--------------------|
G|----14---------9----|
D|----14----7----9----|
A|----12----7----7----|
E|----------5---------|

Verse 2:

And I'm trying to forget the past, 
But I wish you weren't so hard to forget. (hard to forget)
And now you're not around, 
I'm sure that you found another place to feel alive 
Without me by your side.

e|----------------------------------------|
B|----------------------------------------|
G|----14--------14------14------14--------|
D|----14------14--14--14--14--14--14--14--|
A|----12----12------12------12------12----|
E|----------------------------------------|
                                                        
e|----------------------------------------------------------| 
B|----------------------------------------------------------|  
G|----------------9---9-------14------14------14------14----|  
D|------7---7----9-9-9-9----14--14--14--14--14--14--14--14--|
A|-----7-7-7-7--7---7-----12------12------12------12--------|     
E|----5---5-------------------------------------------------|

e|------------------------|
B|------------------------|
G|----------------9---9---|
D|------7---7----9-9-9-9--|
A|-----7-7-7-7--7---7-----|
E|----5---5---------------|

Pre-Chorus 2:

I know you said, that this will not be permanent.
But, it's not correct, 'cause there's no chance for
Us to stay alive (us to stay alive)

                   x2
e|------------------|-----|
B|------------------|-----|
G|----14---------9--|-14--|
D|----14----7----9--|-14--|
A|----12----7----7--|-12--|
E|----------5-------|-----|

e|-------------|
B|-------------|
G|-x--x--x--x--|
D|-x--x--x--x--|
A|-x--x--x--x--|
E|-------------|

Chorus:

Come back home to me. (because my life just isn't)
What it used to be. (without you here)
It kills me just to see

                   x3
e|------------------|
B|------------------|
G|----14---------9--|
D|----14----7----9--|
A|----12----7----7--|
E|----------5-------|

That a part of me is gone,
That a part of me is gone,
That a part of me is gone.

e|---------------|
B|---------------|
G|----14---------|
D|----14----7----|
A|----12----7----|
E|----------5----|

Bridge 1:

Is there something I could say to bring you back to me
And fix this mess we're in?
Every night I seem to find myself awake.
'Cause I wish that I could change 

                   x2
e|------------------|
B|------------------|
G|----14---------9--|
D|----14----7----9--|
A|----12----7----7--|
E|----------5-------|

Bridge 2:

(could change)
The way (the way) you feel.
Yeah, I wish that I could change (could change)
The way (the way) you feel.

                                          x2
e|-----------------------------------------|
B|-----------------------------------------|
G|----14---14---------9---9-9-9-9-9-9-9-9--|
D|----14-------7---7--9--------------------|
A|----12--12---7------7--7-7-7-7-7-7-7-7---|
E|-------------5--5------------------------|

(Come back home to me because my life just isn't what it used to be)

                   x2
e|------------------|-------------|
B|------------------|-------------|
G|----14---------9--|-x--x--x--x--|
D|----14----7----9--|-x--x--x--x--|
A|----12----7----7--|-x--x--x--x--|
E|----------5-------|-------------|

Chorus:

Come back home to me. (because my life just isn't)
What it used to be. (without you here)
It kills me just to see

                   x3
e|------------------|
B|------------------|
G|----14---------9--|
D|----14----7----9--|
A|----12----7----7--|
E|----------5-------|

That a part of me is gone, 
That a part of me is gone.
And I wish that you would...

e|---------------|-------------|
B|---------------|-------------|
G|----14---------|-x--x--x--x--|
D|----14----7----|-x--x--x--x--|
A|----12----7----|-x--x--x--x--|
E|----------5----|-------------|

(Come back home to me)
And I wish that you would
(Come back home to me)
And I wish that you would
(Come back home to me)
And I wish that you'd come home.

                   x3
e|------------------|-----|
B|------------------|-----|
G|----14---------9--|-14--|
D|----14----7----9--|-14--|
A|----12----7----7--|-12--|
E|----------5-------|-----|

**************************************************
--------------------------------------------------

Hope you'll enjoy! =]
It was a lot of work to figure this out!!

--------------------------------------------------
**************************************************
            
Submit corrections



        Come Back Home Home Is Where The Heart Is lessons Hard to play? Try these video lessons and learn fast Come Back Home Home Is Where The Heart Is lessons
        
↑ Back to top | Tablatures and chords for acoustic guitar and electric guitar, ukulele, drums are parodies/interpretations of the original songs. You may use it for private study, scholarship, research or language learning purposes only