Home » J » James Otto »

James Otto - Just Got Started Loving Y0u Tabs

Artists:  A B C D E F G H I J K L M N O P Q R S T U V W X Y Z # 

Just Got Started Loving Y0u Tabs

(ver. 1) Click to play this song!
James Otto
E|---------------------------------------------------------------------
B|---------------------------------------15 15-------------------------
G|-------12-14/16 16 14-12---------14/16-------16-14-12-----12---------
D|-12-14-------------------14 12------------------------14-----14B-----
A|---------------------------------------------------------------------
E|---------------------------------------------------------------------



E-----------------------------------------------------------------------
B--------------------------------------15 15--------------------------
G---14/16--16--14-12-----------14/16         16-14-12-----12---12-------
D----------------------14-12------ ------------------------ 14-----14B-12
A----------------------------------------------------------------------
E-----------------------------------------------------------------------
            
Submit corrections

↑ Back to top | Tablatures and chords for acoustic guitar and electric guitar, ukulele, drums are parodies/interpretations of the original songs. You may use it for private study, scholarship, research or language learning purposes only