» » »

James Horner - The Ludlows Tabs

Artists:  A B C D E F G H I J K L M N O P Q R S T U V W X Y Z # 

The Ludlows Tabs

(ver. 1) Click to play this song!
James Horner
 Rating:
2.9/5 (24 votes)

 The Ludlows  lessons Tabs too difficult? Try these video lessons and learn fast
 
                
e|----5-3-2-------3-2-0-----------0-2-----0--------------3-0-----------------|
B|------------3---------------2-3-----------3----------------2-2-4-2-0-------|
G|--2-------2---2-----------2-----------4-----4--------------0---------------|
D|--------0---------------2-----------4-----------5--------------------------|
A|----------------------0-----------2-----------5---5------------------------|
E|--------------------------------------------3------------------------------|

e|--------------------------------5-3-2-------2-5-7-----5-2--0/2\0---0-------|
B|----------------------------------------3-----------8------------3---------|
G|--------0-2-4---------4-6-----2-------2---2-------7------------------------|
D|--4-4-----------5-----------7-------0-----------5--------------------------|
A|--2---2-------5---5-5-5---7--------------------------------0---------------|
E|------------3-----------5--------------------------------------------------|

e|--2/3-2-0-------------------------------------------0/2--------------------|
B|----------3-----------------------------------------3----------------------|
G|------------4-------2-0-----------2-5-4---5-4-2---0-2----------------------|
D|----------------5-------4-4-----4-------------------0----------------------|
A|--2-----------5---5-----5---5-5-----3---3----------------------------------|
E|------------3-------------------------------3---3--------------------------|            
Submit corrections


        The Ludlows  lessons Hard to play? Try these video lessons and learn fast The Ludlows  lessons
        
↑ Back to top | Tablatures and chords for acoustic guitar and electric guitar, ukulele, drums are parodies/interpretations of the original songs. You may use it for private study, scholarship, research or language learning purposes only