» » »

James Bond - Just A Spy Tune Tabs

Artists:  A B C D E F G H I J K L M N O P Q R S T U V W X Y Z # 

Just A Spy Tune Tabs

(ver. 1) Click to play this song!
James Bond
 Rating:
4/5 (4 votes)
                Tuning: -D-A-D-E-B-E- (Drop D)

Hey, this is a little melody i just happend to stumble across, i was bored, so i came up with this, its simple, there are some cool techniques you can use, like coming into the tab, you could strum  the top string (D) while  strumming the second, at the bottom i have demonstrated this.

Main Bit:                                                                        
E||----------------------|----------------------|----------------------|
B||----------------------|----------------------|----------------------|
G||----------------------|----------------------|----------------------|
D||----------------------|----------------------|----------------------|
A||--1-1-1-1-------------|--2-2-2-2-------------|--3-3-3-3-------------|
D||----------------------|----------------------|----------------------|


                        
----------------------||
----------------------||
----------------------||
----------------------||
--2-2-2-2-------------||
----------------------||

Cool Bit:
E||----------------------|----------------------|----------------------|
B||----------------------|----------------------|----------------------|
G||----------------------|----------------------|----------------------|
D||----------------------|----------------------|----------------------|
A||--1-1-1-1-------------|--2-2-2-2-------------|--3-3-3-3-------------|
D||--O-O-O-O-------------|--O-O-O-O-------------|--O-O-O-O-------------|


                        
----------------------||
----------------------||
----------------------||
----------------------||
--2-2-2-2-------------||
--O-O-O-O-------------||
            
Submit corrections

↑ Back to top | Tablatures and chords for acoustic guitar and electric guitar, ukulele, drums are parodies/interpretations of the original songs. You may use it for private study, scholarship, research or language learning purposes only