» » »

James Bond - I Know This Is On There Somewhere Tabs

Artists:  A B C D E F G H I J K L M N O P Q R S T U V W X Y Z # 

I Know This Is On There Somewhere Tabs

(ver. 1) Click to play this song!
James Bond
 Rating:
4/5 (4 votes)
                e|---0---0---0---0---0---0---0---0---0---
B|-1---2---2---3---2---2---1---2---2---3-
G|---------------------------------------
D|--------------------------------------- and it just goes like that as many
A|--------------------------------------- times as you want. get the pattern?
E|---------------------------------------

this is on a spy movie too.
i think its james bond.

e|------------------------------------
B|------------------------------------
G|------------------------------------ 
D|------------------------------------
A|------------------------------------
E|-3-33-3-3-33-6-8---3-33-3-3-33-1-2--
     ^   
this isnt mean 33
cause there isnt a 33
it just means 3,3 but fast
but you probly alredy know that
cause your smart.

or if your fingers cant strech or somethin
or if you want an easier way, try this.

e|-------------------------------------
B|-------------------------------------
G|-------------------------------------
D|-------------------------------------
A|-------------1-3---------------------
E|-3-33-3-3-33-------3-33-3-3-33-1-2---


if you wanna im me or somethin my aim name is
moomooman4594
o ya and another thing, if you wanna send me a mail 
            
Submit corrections

↑ Back to top | Tablatures and chords for acoustic guitar and electric guitar, ukulele, drums are parodies/interpretations of the original songs. You may use it for private study, scholarship, research or language learning purposes only