» » »

Jam - Pop Art Poem Bass

Artists:  A B C D E F G H I J K L M N O P Q R S T U V W X Y Z # 

Pop Art Poem Bass

(ver. 3) Click to play this song!
Jam
 Rating:
4/5 (4 votes)


 Pop Art Poem lessons Tabs too difficult? Try these video lessons and learn fast
 
                
Intro:

   G|---------|---------|---------|---------|
   D|---------|---------|---------|---------| X2
   A|---------|---------|---------|---------|
   E|-6---6---|-5---5---|-1---1---|-1---1---|

   G|---------|---------|---------|---------|
   D|---------|---------|---------|---------| X1
   A|---------|---------|---------|---------|
   E|-4---4---|-2---2---|-0---0---|-0---0---|

   G|---------|---------|---------|---------|
   D|---------|---------|---------|---------| X1
   A|---------|---------|---------|---------|
   E|-5-------|---------|---------|---------|

Verse 1:

   G|---------|---------|---------|---------|
   D|---------|---------|---------|---------| X2
   A|---------|---------|---------|---------|
   E|-6---6---|-5---5---|-1---1---|-1---1---|
          Kid.....street
          Bumps into...

   G|---------|---------|---------|---------|
   D|---------|---------|---------|---------| X1
   A|---------|---------|---------|---------|
   E|-4---4---|-2---2---|-0---0---|-0---0---|
       ...emptiness

   G|---------|---------|---------|---------|
   D|---------|---------|---------|---------| X1
   A|---------|---------|---------|---------|
   E|-5-------|---------|---------|---------|
      Pow!

Verse 2:

   G|---------|---------|---------|---------|
   D|---------|---------|---------|---------| X2
   A|---------|---------|---------|---------|
   E|-6---6---|-5---5---|-1---1---|-1---1---|
          Kid........sky
          Looks....watch

   G|---------|---------|---------|---------|
   D|---------|---------|---------|---------| X1
   A|---------|---------|---------|---------|
   E|-4---4---|-2---2---|-0---0---|-0---0---|
          Decides...home

   G|---------|---------|---------|---------|
   D|---------|---------|---------|---------| X1
   A|---------|---------|---------|---------|
   E|-5-------|---------|---------|---------|
      Zap!

Verse 3:

   G|---------|---------|---------|---------|
   D|---------|---------|---------|---------| X2
   A|---------|---------|---------|---------|
   E|-6---6---|-5---5---|-1---1---|-1---1---|
          Kid..................her
          Kisses...mouth

   G|---------|---------|---------|---------|
   D|---------|---------|---------|---------| X1
   A|---------|---------|---------|---------|
   E|-4---4---|-2---2---|-0---0---|-0---0---|

   G|---------|---------|---------|---------|
   D|---------|---------|---------|---------| X1
   A|---------|---------|---------|---------|
   E|-5-------|---------|---------|---------|
          Where else?

Verse 4:

   G|---------|---------|---------|---------|
   D|---------|---------|---------|---------| X2
   A|---------|---------|---------|---------|
   E|-6---6---|-5---5---|-1---1---|-1---1---|

   G|---------|---------|---------|---------|
   D|---------|---------|---------|---------| X1
   A|---------|---------|---------|---------|
   E|-4---4---|-2---2---|-0---0---|-0---0---|

   G|---------|---------|---------|---------|
   D|---------|---------|---------|---------| X1
   A|---------|---------|---------|---------|
   E|-5-------|---------|---------|---------|

Verse 5:

   G|---------|---------|---------|---------|
   D|---------|---------|---------|---------| X2
   A|---------|---------|---------|---------|
   E|-6---6---|-5---5---|-1---1---|-1---1---|
          And...thinking
          I.........that

   G|---------|---------|---------|---------|
   D|---------|---------|---------|---------| X1
   A|---------|---------|---------|---------|
   E|-4---4---|-2---2---|-0---0---|-0---0---|
          And.......and

   G|---------|---------|---------|---------|
   D|---------|---------|---------|---------| X1
   A|---------|---------|---------|---------|
   E|-5-------|---------|---------|---------|
      When!      So am I

Verse 6:

   G|---------|---------|---------|---------|
   D|---------|---------|---------|---------| X2
   A|---------|---------|---------|---------|
   E|-6---6---|-5---5---|-1---1---|-1---1---|
          ..............
          I........along
      
   G|---------|---------|---------|---------|
   D|---------|---------|---------|---------| X1
   A|---------|---------|---------|---------|
   E|-4---4---|-2---2---|-0---0---|-0---0---|
          It's.....innit?

   G|---------|---------|---------|---------|
   D|---------|---------|---------|---------| X1
   A|---------|---------|---------|---------|
   E|-5-------|---------|---------|---------|

Outro:

   G|---------|---------|---------|---------|
   D|---------|---------|---------|---------| X6
   A|---------|---------|---------|---------|
   E|-7---7---|-6---6---|-3---3---|-3---3---|

Lyrics:

   Kid walks down the street
   Bumps into... 
   ...emptiness
   Pow!

   Kid looks at the sky
   Looks at his watch
   Decides to go home
   Zap!

   Kid spies pretty girl, walks up to her
   Kisses her, on the mouth
   Where else?

   And all day long I was thinking
   I was thinking this, that 
   And the other and...
   When! So am I

   I made this up as I went along
   It's good innit?
            
Submit corrections



        Pop Art Poem lessons Hard to play? Try these video lessons and learn fast Pop Art Poem lessons
        
↑ Back to top | Tablatures and chords for acoustic guitar and electric guitar, ukulele, drums are parodies/interpretations of the original songs. You may use it for private study, scholarship, research or language learning purposes only