» » »

Jam - Pop Art Poem Tabs

Artists:  A B C D E F G H I J K L M N O P Q R S T U V W X Y Z # 

Pop Art Poem Tabs

(ver. 1) Click to play this song!
Jam
 Rating:
4/5 (4 votes)
                  9th September 2000, 22.11pm
This is all my own work.

POP ART POEM
(Weller)


This is basically the bass part - just played on the guitar.

N.C.
--------------------------
--------------------------
--7--7--6--6-------------- (x2)
--------------5--5--5--5--
--------------------------
--------------------------

N.C.
-----------------------------
-----------------------------
-----------------------------
--------------------------2--
--5--5--4--4--2--2--2--2-----
-----------------------------

Repeat this throughout the whole song

The very end there's a bit that goes

-------
-------
-------
-------
--5\0--
-------
            
Submit corrections

↑ Back to top | Tablatures and chords for acoustic guitar and electric guitar, ukulele, drums are parodies/interpretations of the original songs. You may use it for private study, scholarship, research or language learning purposes only