» » »

Jake Bugg - Lightning Bolt Tabs

Artists:  A B C D E F G H I J K L M N O P Q R S T U V W X Y Z # 

Lightning Bolt Tabs

(ver. 2) Click to play this song!
Jake Bugg
 Rating:
4/5 (4 votes)

 Lightning Bolt lessons Tabs too difficult? Try these video lessons and learn fast
 
                Tuning: D A D F# A D
INTRO
e|0----7----5----0----7----5----0----7----5----0----7----5-------------------------------|
B|0----7----5----0----7----5----0----7----5----0----7----5-------------------------------|
G|0----7----5----0----7----5----0----7----5----0----7----5-------------------------------|
D|0----7----5----0----7----5----0----7----5----0----7----5-------------------------------| 
A|0----7----5----0----7----5----0----7----5----0----7----5-------------------------------|
E|0----7----5----0----7----5----0----7----5----0----7----5-------------------------------|
Verse 1
e|0----7----5----0----7----5----0----7----5----0----7----5-------------------------------|
B|0----7----5----0----7----5----0----7----5----0----7----5-------------------------------|
G|0----7----5----0----7----5----0----7----5----0----7----5-------------------------------|
D|0----7----5----0----7----5----0----7----5----0----7----5-------------------------------| 
A|0----7----5----0----7----5----0----7----5----0----7----5-------------------------------|
E|0----7----5----0----7----5----0----7----5----0----7----5-------------------------------|
INTRO  BUT ONLY TWO LOTS (if ya get what I mean)
Verse 2
e|0----7----5----0----7----5----0----7----5----0----7----5-------------------------------|
B|0----7----5----0----7----5----0----7----5----0----7----5-------------------------------|
G|0----7----5----0----7----5----0----7----5----0----7----5-------------------------------|
D|0----7----5----0----7----5----0----7----5----0----7----5-------------------------------| 
A|0----7----5----0----7----5----0----7----5----0----7----5-------------------------------|
E|0----7----5----0----7----5----0----7----5----0----7----5-------------------------------|
two lots of intro again
Verse 3
e|0----7----5----0----7----5----0----7----5----0----7----5-------------------------------|
B|0----7----5----0----7----5----0----7----5----0----7----5-------------------------------|
G|0----7----5----0----7----5----0----7----5----0----7----5-------------------------------|
D|0----7----5----0----7----5----0----7----5----0----7----5-------------------------------| 
A|0----7----5----0----7----5----0----7----5----0----7----5-------------------------------|
E|0----7----5----0----7----5----0----7----5----0----7----5-------------------------------|
CHORUS
e|5----0----5----0----7--5----0-----------------------------------------------------|
B|5----0----5----0----7--5----0-----------------------------------------------------|
G|5----0----5----0----7--5----0-----------------------------------------------------|
D|5----0----5----0----7--5----0-----------------------------------------------------|
A|5----0----5----0----7--5----0-----------------------------------------------------|
E|5----0----5----0----7--5----0-----------------------------------------------------|
            
Submit corrections


        Lightning Bolt lessons Hard to play? Try these video lessons and learn fast Lightning Bolt lessons
        
↑ Back to top | Tablatures and chords for acoustic guitar and electric guitar, ukulele, drums are parodies/interpretations of the original songs. You may use it for private study, scholarship, research or language learning purposes only