Home » J » Jackson C Frank »

Jackson C Frank - Blues Run The Game Tabs

Artists:  A B C D E F G H I J K L M N O P Q R S T U V W X Y Z # 

Blues Run The Game Tabs

(ver. 2) Click to play this song!
Jackson C Frank
CAPO 6

Tuning: Standard Tuning is fine. In recording he tunes his guitar a quarter step down, so it sounds out of tune.

e|-------------------------------3-------------------------------------------|
B|----0-----------0-h1------1------------0-h3----0---------------------------|
G|----0----0------0--0-------------------0-------0---------------------------|
D|----0-------0---0-h2---2---------2-----0-------0--0------------------------|
A|---------------------------------------------------------------------------|
E|-3-----3---------------3----3--------3------3------------------------------|

e|---------------------------------------------------------------------------|
B|-0-h1-----------1------------1-------------1-------------------------------|
G|-0--0----0-------------2----------0----0---------0-------------------------|
D|-0-h2--2-----------0---0--0---------0--2-----------------------------------|
A|----------------------------------------------------2----------------------|
E|-3----------3----------3--------3------3------3----------------------------|

e|------------------3--------------------------------------------------------|
B|-0----------h1---------------0---------------------------------------------|
G|-0------0----0---------------0-------0-----0-------------------------------|
D|-0---0------h2--------2------0----0-----------0----------------------------|
A|---------------------------------------------------------------------------|
E|-3---------------------------3----------3----------------------------------|            
Submit corrections

↑ Back to top | Tablatures and chords for acoustic guitar and electric guitar, ukulele, drums are parodies/interpretations of the original songs. You may use it for private study, scholarship, research or language learning purposes only