Home » J » Jackie Deshannon »

Jackie Deshannon - Put A Little Love In Your Heart Tabs

Artists:  A B C D E F G H I J K L M N O P Q R S T U V W X Y Z # 

Put A Little Love In Your Heart Tabs

(ver. 1) Click to play this song!
Jackie Deshannon
 Intro                                 1st & 2nd Verses
  Q=104
  D                                     D
 4/4
  Gtr I (Ac. Gtr.)
  E E E E E E E E   E E E E E E E E     E E E E E E E E   E E E E E E E E
|-2-2-2-2-2-2-2-2-|-2-2-2-2-2-2-2-2-||--2-2-2-2-2-2-2-2-|-2-2-2-2-2-2-2-2-|
|-3-3-3-3-3-3-3-3-|-3-3-3-3-3-3-3-3-||o-3-3-3-3-3-3-3-3-|-3-3-3-3-3-3-3-3-|
|-2-2-2-2-2-2-2-2-|-2-2-2-2-2-2-2-2-||--2-2-2-2-2-2-2-2-|-2-2-2-2-2-2-2-2-|
|-0-0-0-0-0-0-0-0-|-0-0-0-0-0-0-0-0-||--0-0-0-0-0-0-0-0-|-0-0-0-0-0-0-0-0-|
|-----------------|-----------------||o-----------------|-----------------|
|-----------------|-----------------||------------------|-----------------|


  G                 D
  E E E E E E E E   E E E E E E E E   E E E E E E E E   E E E E E E E E
|-3-3-3-3-3-3-3-3-|-2-2-2-2-2-2-2-2-|-2-2-2-2-2-2-2-2-|-2-2-2-2-2-2-2-2--|
|-3-3-3-3-3-3-3-3-|-3-3-3-3-3-3-3-3-|-3-3-3-3-3-3-3-3-|-3-3-3-3-3-3-3-3--|
|-4-4-4-4-4-4-4-4-|-2-2-2-2-2-2-2-2-|-2-2-2-2-2-2-2-2-|-2-2-2-2-2-2-2-2--|
|-5-5-5-5-5-5-5-5-|-0-0-0-0-0-0-0-0-|-0-0-0-0-0-0-0-0-|-0-0-0-0-0-0-0-0--|
|-5-5-5-5-5-5-5-5-|-----------------|-----------------|------------------|
|-3-3-3-3-3-3-3-3-|-----------------|-----------------|------------------|


                                      Chorus
  G                 D                  D                 Em      A
  E E E E E E E E   E E E E E E E E    E E E E E E E E   E E E E E E E E
|-3-3-3-3-3-3-3-3-|-2-2-2-2-2-2-2-2-||-2-2-2-2-2-2-2-2-|-0-0-0-0-0-0-0-0--|
|-3-3-3-3-3-3-3-3-|-3-3-3-3-3-3-3-3-||-3-3-3-3-3-3-3-3-|-0-0-0-0-2-2-2-2--|
|-4-4-4-4-4-4-4-4-|-2-2-2-2-2-2-2-2-||-2-2-2-2-2-2-2-2-|-0-0-0-0-2-2-2-2--|
|-5-5-5-5-5-5-5-5-|-0-0-0-0-0-0-0-0-||-0-0-0-0-0-0-0-0-|-2-2-2-2-2-2-2-2--|
|-5-5-5-5-5-5-5-5-|-----------------||-----------------|-2-2-2-2-0-0-0-0--|
|-3-3-3-3-3-3-3-3-|-----------------||-----------------|-0-0-0-0----------|


  D                 Em      A
  E E E E E E E E   E E E E E E E E   E E E E E E E E   E E E E E E E E
|-2-2-2-2-2-2-2-2-|-0-0-0-0-0-0-0-0-|-0-0-0-0-0-0-0-0-|-0-0-0-0-0-0-0-0--|
|-3-3-3-3-3-3-3-3-|-0-0-0-0-2-2-2-2-|-2-2-2-2-2-2-2-2-|-2-2-2-2-2-2-2-2--|
|-2-2-2-2-2-2-2-2-|-0-0-0-0-2-2-2-2-|-2-2-2-2-2-2-2-2-|-2-2-2-2-2-2-2-2--|
|-0-0-0-0-0-0-0-0-|-2-2-2-2-2-2-2-2-|-2-2-2-2-2-2-2-2-|-2-2-2-2-2-2-2-2--|
|-----------------|-2-2-2-2-0-0-0-0-|-0-0-0-0-0-0-0-0-|-0-0-0-0-0-0-0-0--|
|-----------------|-0-0-0-0---------|-----------------|------------------|


                   1.                  2.
                                                           Bb
  E E E E E E E E   E E E E E E E E     E E E E E E E E    E E E E E E E E
|-0-0-0-0-0-0-0-0-|-0-0-0-0-0-0-0-0--||-0-0-0-0-0-0-0-0-||-----------------|
|-2-2-2-2-2-2-2-2-|-2-2-2-2-2-2-2-2-o||-2-2-2-2-2-2-2-2-||-3-3-3-3-3-3-3-3-|
|-2-2-2-2-2-2-2-2-|-2-2-2-2-2-2-2-2--||-2-2-2-2-2-2-2-2-||-3-3-3-3-3-3-3-3-|
|-2-2-2-2-2-2-2-2-|-2-2-2-2-2-2-2-2--||-2-2-2-2-2-2-2-2-||-3-3-3-3-3-3-3-3-|
|-0-0-0-0-0-0-0-0-|-0-0-0-0-0-0-0-0-o||-0-0-0-0-0-0-0-0-||-1-1-1-1-1-1-1-1-|
|-----------------|------------------||-----------------||-----------------|


                    3rd Verse
                     Eb                                  Ab
  E E E E E E E E    E E E E E E E E   E E E E E E E E   E E E E E E E E
|-----------------||-3-3-3-3-3-3-3-3-|-3-3-3-3-3-3-3-3-|-4-4-4-4-4-4-4-4--|
|-3-3-3-3-3-3-3-3-||-4-4-4-4-4-4-4-4-|-4-4-4-4-4-4-4-4-|-4-4-4-4-4-4-4-4--|
|-3-3-3-3-3-3-3-3-||-3-3-3-3-3-3-3-3-|-3-3-3-3-3-3-3-3-|-5-5-5-5-5-5-5-5--|
|-3-3-3-3-3-3-3-3-||-5-5-5-5-5-5-5-5-|-5-5-5-5-5-5-5-5-|-6-6-6-6-6-6-6-6--|
|-1-1-1-1-1-1-1-1-||-6-6-6-6-6-6-6-6-|-6-6-6-6-6-6-6-6-|-6-6-6-6-6-6-6-6--|
|-----------------||-----------------|-----------------|-4-4-4-4-4-4-4-4--|


  Eb                                                    Ab
  E E E E E E E E   E E E E E E E E   E E E E E E E E   E E E E E E E E
|-3-3-3-3-3-3-3-3-|-3-3-3-3-3-3-3-3-|-3-3-3-3-3-3-3-3-|-4-4-4-4-4-4-4-4--|
|-4-4-4-4-4-4-4-4-|-4-4-4-4-4-4-4-4-|-4-4-4-4-4-4-4-4-|-4-4-4-4-4-4-4-4--|
|-3-3-3-3-3-3-3-3-|-3-3-3-3-3-3-3-3-|-3-3-3-3-3-3-3-3-|-5-5-5-5-5-5-5-5--|
|-5-5-5-5-5-5-5-5-|-5-5-5-5-5-5-5-5-|-5-5-5-5-5-5-5-5-|-6-6-6-6-6-6-6-6--|
|-6-6-6-6-6-6-6-6-|-6-6-6-6-6-6-6-6-|-6-6-6-6-6-6-6-6-|-6-6-6-6-6-6-6-6--|
|-----------------|-----------------|-----------------|-4-4-4-4-4-4-4-4--|


                    Chorus
  Eb                 Eb                Fm      Bb        Eb
  E E E E E E E E    E E E E E E E E   E E E E E E E E   E E E E E E E E
|-3-3-3-3-3-3-3-3-||-3-3-3-3-3-3-3-3-|-1-1-1-1-1-1-1-1-|-3-3-3-3-3-3-3-3--|
|-4-4-4-4-4-4-4-4-||-4-4-4-4-4-4-4-4-|-1-1-1-1-3-3-3-3-|-4-4-4-4-4-4-4-4--|
|-3-3-3-3-3-3-3-3-||-3-3-3-3-3-3-3-3-|-1-1-1-1-3-3-3-3-|-3-3-3-3-3-3-3-3--|
|-5-5-5-5-5-5-5-5-||-5-5-5-5-5-5-5-5-|-3-3-3-3-3-3-3-3-|-5-5-5-5-5-5-5-5--|
|-6-6-6-6-6-6-6-6-||-6-6-6-6-6-6-6-6-|-3-3-3-3-1-1-1-1-|-6-6-6-6-6-6-6-6--|
|-----------------||-----------------|-1-1-1-1---------|------------------|


  Fm      Bb
  E E E E E E E E   E E E E E E E E   E E E E E E E E   E E E E E E E E
|-1-1-1-1-1-1-1-1-|-1-1-1-1-1-1-1-1-|-1-1-1-1-1-1-1-1-|-1-1-1-1-1-1-1-1--|
|-1-1-1-1-3-3-3-3-|-3-3-3-3-3-3-3-3-|-3-3-3-3-3-3-3-3-|-3-3-3-3-3-3-3-3--|
|-1-1-1-1-3-3-3-3-|-3-3-3-3-3-3-3-3-|-3-3-3-3-3-3-3-3-|-3-3-3-3-3-3-3-3--|
|-3-3-3-3-3-3-3-3-|-3-3-3-3-3-3-3-3-|-3-3-3-3-3-3-3-3-|-3-3-3-3-3-3-3-3--|
|-3-3-3-3-1-1-1-1-|-1-1-1-1-1-1-1-1-|-1-1-1-1-1-1-1-1-|-1-1-1-1-1-1-1-1--|
|-1-1-1-1---------|-----------------|-----------------|------------------|


                     Outro
                      Ab                Eb
  E E E E E E E E     E E E E E E E E   E E E E E E E E  8x
|-1-1-1-1-1-1-1-1-||--4-4-4-4-4-4-4-4-|-3-3-3-3-3-3-3-3--||
|-3-3-3-3-3-3-3-3-||o-4-4-4-4-4-4-4-4-|-4-4-4-4-4-4-4-4-o||
|-3-3-3-3-3-3-3-3-||--5-5-5-5-5-5-5-5-|-3-3-3-3-3-3-3-3--||
|-3-3-3-3-3-3-3-3-||--6-6-6-6-6-6-6-6-|-5-5-5-5-5-5-5-5--||
|-1-1-1-1-1-1-1-1-||o-6-6-6-6-6-6-6-6-|-6-6-6-6-6-6-6-6-o||
|-----------------||--4-4-4-4-4-4-4-4-|------------------||            
Submit corrections

↑ Back to top | Tablatures and chords for acoustic guitar and electric guitar, ukulele, drums are parodies/interpretations of the original songs. You may use it for private study, scholarship, research or language learning purposes only