Home » J » Jackie Deshannon »

Jackie Deshannon - Put A Little Love In Your Heart Bass

Artists:  A B C D E F G H I J K L M N O P Q R S T U V W X Y Z # 

Put A Little Love In Your Heart Bass

(ver. 1) Click to play this song!
Jackie Deshannon
 Intro                             1st & 2nd Verses
  Q=104
 4/4
  Gtr I
  Q.   E +H       Q.   E +H         Q.   E +H       Q.   E +H
|---------------|---------------||----------------|---------------|
|---------------|---------------||o---------------|---------------|
|-5----5-(5)----|-5----5-(5)----||o-5----5-(5)----|-5----5-(5)----|
|---------------|---------------||----------------|---------------|


  Q.   E +Q.   E   Q.   E +Q.   E   Q.   E +Q.   E   Q.   E +Q.   E
|----------------|----------------|----------------|-----------------|
|-5----5-(5)---7-|--------------7-|--------------4-|--------------7--|
|----------------|-5----5-(5)-----|-5----5-(5)-----|-5----5-(5)------|
|----------------|----------------|----------------|-----------------|


                                    Chorus
  Q.   E +Q.   E   Q.   E +Q.   E    Q.   E +Q.   E   Q.   E Q.   E
|----------------|----------------||----------------|----------------|
|-5----5-(5)---7-|----------------||----------------|--------7----7--|
|----------------|-5----5-(5)---5-||-5----5-(5)---5-|-7----7---------|
|----------------|----------------||----------------|----------------|


  Q.   E +Q.   E   Q.   E Q.   E   Q.   E +Q.   E   Q.   E +Q.   E
|----------------|---------------|----------------|-----------------|
|--------------7-|--------7------|-7----7-(7)-----|-7----7-(7)------|
|-5----5-(5)-----|-7----7------7-|--------------7-|--------------7--|
|----------------|---------------|----------------|-----------------|


                  1.                 2.
  Q.   E +Q.   E   Q.   E +Q.   E     Q.   E +Q.   E    Q.   E +Q.   E
|----------------|-----------------||----------------||----------------|
|-7----7-(7)-----|-7----7-(7)-----o||-7----7-(7)---7-||-8----8-(8)-----|
|--------------7-|--------------7-o||----------------||--------------8-|
|----------------|-----------------||----------------||----------------|


                   3rd Verse
  Q.   E +Q.   E    Q.   E +Q.   E   Q.   E +Q.   E   Q.   E +Q.   E
|----------------||----------------|----------------|-----------------|
|-8----8-(8)-----||--------------8-|--------------5-|-6----6-(6)---8--|
|--------------8-||-6----6-(6)-----|-6----6-(6)-----|-----------------|
|----------------||----------------|----------------|-----------------|


  Q.   E +Q.   E   Q.   E +Q.   E   Q.   E +Q.   E   Q.   E +Q.   E
|----------------|----------------|----------------|-----------------|
|--------------8-|--------------8-|--------------5-|-6----6-(6)---8--|
|-6----6-(6)-----|-6----6-(6)-----|-6----6-(6)-----|-----------------|
|----------------|----------------|----------------|-----------------|


                   Chorus
  Q.   E +Q.   E    Q.   E +Q.   E   Q.   E Q.   E   Q.   E +Q.   E
|----------------||----------------|---------------|-----------------|
|--------------8-||----------------|--------8----8-|-----------------|
|-6----6-(6)-----||-6----6-(6)---6-|-8----8--------|-6----6-(6)---6--|
|----------------||----------------|---------------|-----------------|


  Q.   E Q.   E   Q.   E +Q.   E   Q.   E +Q.   E   Q.   E +Q.   E
|---------------|----------------|----------------|-----------------|
|--------8------|-8----8-(8)-----|-8----8-(8)-----|-8----8-(8)------|
|-8----8------8-|--------------8-|--------------8-|--------------8--|
|---------------|----------------|----------------|-----------------|


                    Outro
  Q.   E +Q.   E     Q.   E +H       Q.   E +Q.   E  8x
|----------------||----------------|-----------------||
|-8----8-(8)---8-||o-6----6-(6)----|----------------o||
|----------------||o---------------|-6----6-(6)---6-o||
|----------------||----------------|-----------------||            
Submit corrections

↑ Back to top | Tablatures and chords for acoustic guitar and electric guitar, ukulele, drums are parodies/interpretations of the original songs. You may use it for private study, scholarship, research or language learning purposes only