Home » J » Jack Garratt »

Jack Garratt - Worry Bass

Artists:  A B C D E F G H I J K L M N O P Q R S T U V W X Y Z # 

Worry Bass

(ver. 1) Click to play this song!
Jack Garratt
 Rating:
4.4/5 (7 votes)
                Verse 1

G|---------------------------------------------------------------------------|
D|---------------------------------------------------------------------------|
A|---------------------------------------------------------------------------|  x2
E|5---5-3---3-1-1-1-1---1-5--------------------------------------------------|

CHORUS
G|---------------------------------------------------------------------------|
D|---------------------------------------------------------------------------|
A|-12 S-------3-3--5-5-------------------------------------------------------|  x2
E|-------3-3--------------12-------------------------------------------------|


VERSE 2 [Use wah wah effect if you have it]

G|---------------------------------------------------------------------------|
D|---------------------------------------------------------------------------|
A|---------------------------------------------------------------------------|  x2
E|-5-5-5-5---3-3-3-3---1-1-1-1-----------------------------------------------|

BRIDGE

G|---------------------------------------------------------------------------|
D|---------------------------------------------------------------------------|
A|-12---------3-3--5-5-------------------------------------------------------|
E|-------3-3--------------12-------------------------------------------------|


CHORUS REPEAT            
Submit corrections

↑ Back to top | Tablatures and chords for acoustic guitar and electric guitar, ukulele, drums are parodies/interpretations of the original songs. You may use it for private study, scholarship, research or language learning purposes only