» » »

Jackass - Dimitrys Russian Song Gumbal Rally Tabs

Artists:  A B C D E F G H I J K L M N O P Q R S T U V W X Y Z # 

Dimitrys Russian Song Gumbal Rally Tabs

(ver. 1) Click to play this song!
Jackass
 Rating:
4/5 (4 votes)
                dimitry's russian song gumBal rally


jackass






e:--------------------------------------------------------------|
B:---------9----9-9--9-12-10-9--10--10--9-12-10-9-9-------------|
G:-9--9--9---10--------------------------------------9-9h10-9---|
D:--------------------------------------------------------------|
A:--------------------------------------------------------------|
E:--------------------------------------------------------------|

e:--------------------------------------------------------------|
B:---------9----9-9--9-12-10-9--10--10--9-12-10-9-9-------------|
G:-9--9--9---10--------------------------------------9-9h10-9---|
D:--------------------------------------------------------------|
A:--------------------------------------------------------------|
E:--------------------------------------------------------------|
            
Submit corrections

↑ Back to top | Tablatures and chords for acoustic guitar and electric guitar, ukulele, drums are parodies/interpretations of the original songs. You may use it for private study, scholarship, research or language learning purposes only