» » »

Jace Everett - Bad Things Tabs

Artists:  A B C D E F G H I J K L M N O P Q R S T U V W X Y Z # 

Bad Things Tabs

(ver. 2) Click to play this song!
Jace Everett
 Rating:
4/5 (12 votes)


 Bad Things lessons Tabs too difficult? Try these video lessons and learn fast
 
                -------------------------------------------------------------------------------
                             Bad Things - Jace Everett
-------------------------------------------------------------------------------

Tuning: Standard


This is my first tab, but I think I did a good job. This ones to all the True Blood fans 
to play the solo to Bad Things.

E|---------------------------------------------------------------------------|
B|-----------------------------------------------------------------------3/5-|
G|---------------14b16--12------9--8--9--8--11--8--12--8--12b14--11----------|
D|--5/10--9-----------------14---------------------------------------14------|
A|-----------12--------------------------------------------------------------|
E|---------------------------------------------------------------------------|


E|--------------------------------------------------------------------------|
B|--1/3---------------------------------------------------------------------|
G|-------2--0--3--2--0--2--0--3--2--0--2--0---------------------------------|
D|-------------------------------------------2--0---------------------------|
A|-------------------------------------------------2--0---------------------|
E|-------------------------------------------------------2--3--0------------|


| /  slide up
| \  slide down
| h  hammer-on
| p  pull-off
| ~  vibrato
| +  harmonic
| x  Mute note
===============================================================================
            
Submit corrections



        Bad Things lessons Hard to play? Try these video lessons and learn fast Bad Things lessons
        
↑ Back to top | Tablatures and chords for acoustic guitar and electric guitar, ukulele, drums are parodies/interpretations of the original songs. You may use it for private study, scholarship, research or language learning purposes only