Home » I » Isis »

Isis - Poison Eggs Tabs

Artists:  A B C D E F G H I J K L M N O P Q R S T U V W X Y Z # 

Poison Eggs Tabs

(ver. 1) Click to play this song!
Isis
Hey Guys I learned this by ear. NOt 100% but you get the point.


Intro (0:00-1:44)

C-------------------------------------------|
G----10-8---10-8/6---10-8---10-/4-4---------|
D#------------------------------------------|
A#------------------------------------------|
F-------------------------------------------|
C-------------------------------------------|


C------------------------------------------|
G----10-8----10-8/6---10-8-----10-/4-4-----|
D#-----------------------------------------|
A#-----------------------------------------|
F------------------------------------------|
C-----------0-------------------0----------|


C----17-15----17-15/13-----17-15---17/11-11/---|
G----------------------------------------------|
D#---------------------------------------------|
A#---------------------------------------------|
F----------------------------------------------|
C----------------------------------------------|


C----17-15----17-15/13-----17-15---17/11-11/----|
G-----------------------------------------------|
D#----------------------------------------------|
A#----------------------------------------------|
F-----------------------------------------------|
C-----------------------------------------------|


(1:04)

C-----------------------------------------------------|
G----10-8-8-8--10-8/6-6-6--10-8-8-8---10-/4-4-4-------|
D#----------------------------------------------------|
A#----------------------------------------------------|
F-----------------------------------------------------|
C-----------------------------------------------------|


C-------------------------------------------------------|
G----10-8-8-8--10-8/6-6-6--10-8-8-8---10-6---65656565---|
D#------------------------------------------------------|
A#------------------------------------------------------|
F-------------------------------------------------------|
C-------------------------------------------------------|


Distorted Riff (1:52-2:16) then (2:31-2:48)

C-----------------------------------------------------|
G-----------------------------------------------------|
D#----------------------------------------------------|
A#--2----10------9---2--------------------------------|
F---2-----8------7---2------5/8-8---------------------|
C---0--0-----0-------0---0--3/6-6---------------------|

(2:48-3:44)

C--------------------------------------------------|
G--------------------------------------------------|
D#-------------------------------------------------|
A#---12--------------------------------------------|
F----10--2-2-2-2-2-2---------1/3/5/7---------------|
C----10--0-0-0-0-0-0-------------------------------|


(3:44-4:18)

C-------------------------------------------------------|
G-------------------------------------------------------|
D#------------------------------------------------------|
A#---2---5----------------------------------------------|
F----2-----7----8---12-12-------------------------------|
C----0-------0--6---10-10-------------------------------|


Again this is nowhere 100% but you guys can try work out the rest. Just work around my 
tab. Its the right tuning for the Mosquito Control EP.
            
Submit corrections

↑ Back to top | Tablatures and chords for acoustic guitar and electric guitar, ukulele, drums are parodies/interpretations of the original songs. You may use it for private study, scholarship, research or language learning purposes only