Home » I » I Set My Friends On Fire »

I Set My Friends On Fire - Things That Rhyme With Orange Tabs

Artists:  A B C D E F G H I J K L M N O P Q R S T U V W X Y Z # 

Things That Rhyme With Orange Tabs

(ver. 1) Click to play this song!
I Set My Friends On Fire
|-17----17----17-----12----12----12-----14----14----14-----12----12----12------|
|---16----16----16-----15----15----15-----15----15----15-----14----14----14----|
|-----15----15-----------12----12-----------14----14-----------12----12--------|
|------------------------------------------------------------------------------|
|------------------------------------------------------------------------------|
|------------------------------------------------------------------------------|



[Verse 1] 
Do this octave nearly the whole time.. Sometimes it drops out and the synth plays one of
the above chords arpeggio's but it doesn't matter too much. With Phaser effect
 Guitar 1
|-------17~~~~~~~--------------------------------------------------------------|
|-14h15-15~~~~~~~~~------------------------------------------------------------|
|-------x----------------------------------------------------------------------|
|-------12~~~~~~~~~------------------------------------------------------------|
|------------------------------------------------------------------------------|
|------------------------------------------------------------------------------|
|
|Guitar 2
|------------------------------------------------------------------------------|
|------------------------------------------------------------------------------|
|------------------------------------------------------------------------------|
|-999---999000---000555---000555---555999---999000---000555---000555---555-----|
|-999---999000---000555---000555---555999---999000---000555---000555---555-----|
|-999---999000---000555---000555---555999---999000---000555---000555---555-----|
|
|------------------------------------------------------------------------------|
|------------------------------------------------------------------------------|
|------------------------------------------------------------------------------|
|--------------------------------------------------------000-5~~~~-5\4-4\2-2\0-|
|-999---9999000---0000555---0000555---5555999---9999000--000-5~~~~-------------|
|-999---9999000---0000555---0000555---5555999---9999000--000-5~~~~-------------|




"What is that Paintbrush for"?                  x2 Then end synth 
|-7~~~~---12bAH---10~~~~-------------------------|-----------------------------|
|-10~~~-----------10~~~~---12~~~~----12~~~~------|-----------------------------|
|-7~~~~-----------11~~~~---12~~~~----12~~~~------|-----------------------------|
|-9~~~~-----------0~~~~----12~~~~----12~~~~------|-----------------------------|
|--------------------------10~~~~----10~~~~------|-----------12----------------|
|------------------------------------------------|--12-11-12----12-11-12-------|



[Chorus]
Guitar 1 (listen before playing)
|-17~~--------------------14------------------17------------17-----------------|
|-----14~~15tr------17-17----17~~~~-----14-15----14-15~~~~~----14-15tr-14------|
|-------------------------------------------------------------------------16-16|
|------------------------------------------------------------------------------|
|------------------------------------------------------------------------------|
|------------------------------------------------------------------------------|
|
|------------------14---------------17-----------------------------------------|
|-------------17-----17~~~~---14-15----14-15~~~~~-----15~~~~~~~~~~~~~----------|
|-16-16-16-16---16-------------------------------------------------------------|
|------------------------------------------------------------------------------|
|------------------------------------------------------------------------------|
|------------------------------------------------------------------------------|
|
|Guitar 2
|------------------------------------------------------------------------------|
|------------------------------------------------------------------------------|
|------------------------------------------------------------------------------|
|-0~~~~----2~~~~----5~~~~----0~~~~----2~~~~----5~~~~----0~~~~~~~~--------------|
|-0~~~~----2~~~~----5~~~~----0~~~~----2~~~~----5~~~~----0~~~~~~~~--------------|
|-0~~~~----2~~~~----5~~~~----0~~~~----2~~~~----5~~~~----0~~~~~~~~--------------|



[Verse 2] Staccato Chords after Synth (The bass takes care of the Root note)  x2
|-5-5-5-5-5-5-5-5------------5-5-5--5-5-5-5-5-5-5-5--5-5-5-5-5-5-5-5-----------|
|-3-3-3-3-3-3-3-3--7-7-7-7-7-7-7-7--7-7-7-7-7-7-5-5--7-7-7-7-7-7-5-5-----------|
|-4-4-4-4-4-4-4-4--7-7-7-7-7-7-7-7--7-7-7-7-7-7-7-7--7-7-7-7-7-7-7-7-----------|
|-4-4-4-4-4-4-4-4--0-0-0-0-0-0-0-0--7-7-7-7-7-7-7-7--7-7-7-7-7-7-7-7-----------|
|------------------0-0-0-0-0-0-0-0--5-5-5-5-5-5-5-5--5-5-5-5-5-5-5-5-----------|
|------------------------------------------------------------------------------|



Chorus




[Breakdown]
|---------10---10---10---10~~~--------------10-10----10-10---------------------|
|---------14---14---14---14b~~--------------14b14b---14b14b--------------------|
|------------------------------------------------------------------------------|
|------------------------------------------------------------------------------|
|-0000--------------------------0000-0~~---------------------------------------|
|-0000-------0----0----0--------0000-0~~--0--------0---------------------------|
|
|---------10---10---10---10~~~--------------10-------10------------------------|
|---------14---14---14---14b~~-----------------14-------14---------------------|
|-------------------------------------------------12-------12~~----------------|
|------------------------------------------------------------------------------|
|-0000--------------------------0000-0~~---------------------------------------|
|-0000-------0----0----0--------0000-0~~--0-0----------------------------------|
|
|------------------------------------10-10----10-10----------------------------|
|------------------------------------14b14b---14b14b---------------------------|
|------------------------------------------------------------------------------|
|------------------------------------------------------------------------------|
|-0000------0000--------0000-0~~-----------------------------------------------|
|-0000------0000--------0000-0~~--0---------0----------------------------------|
|
|------------------------------------10-10----10-10----------------------------|
|------------------------------------14b14b---14b14b---------------------------|
|------------------------------------------------------------------------------|
|------------------------------------------------------------------------------|
|-0000------0000--------0000-0~~-----------------------------------------------|
|-0000------0000--------0000-0~~--0-0-------0----------------------------------||




Intro Synth



[Bridge Interlude]                                                            x2
|-5-5-5----5-5-5---------------------------------------5-5---5-5-5-5-----------|
|-3-3-3----3-3-3-----7-7---7-7-7-7--7-7-7----7-7-7-----7-7---7-7-7-7-----------|
|-4-4-4----4-4-4-----7-7---7-7-7-7--7-7-7----7-7-7-----7-7---7-7-7-7-----------|
|-4-4-4----4-4-4-----0-0---0-0-0-0--7-7-7----7-7-7-----7-7---7-7-7-7-----------|
|--------------------0-0---0-0-0-0--5-5-5----5-5-5-----5-5---5-5-5-5-----------|
|------------------------------------------------------------------------------|
            
Submit corrections

↑ Back to top | Tablatures and chords for acoustic guitar and electric guitar, ukulele, drums are parodies/interpretations of the original songs. You may use it for private study, scholarship, research or language learning purposes only