Home » I » Irving Berlin »

Irving Berlin - God Bless America Tabs

Artists:  A B C D E F G H I J K L M N O P Q R S T U V W X Y Z # 

God Bless America Tabs

(ver. 1) Click to play this song!
Irving Berlin
 Rating:
3.5/5 (24 votes)
                e|---------------------------------------------------------------------------|
B|-------------1-----3-----------------------1-------------------------------|
G|---2----3----------------3--3---0---2---3------2-------0---2----3--0---0--0|
D|---2------------------------5------------------2---3---2---0----0--0---0--2|
A|--------------------------------2------------------------------------------|
E|---------------------------------------------------------------------------|
   while the storm clouds gather far across the sea let us swear allegiance to 
e|---------------------------------------------------------------------------|
B|------------------------------1--3---------------1---3-------1---1-1----1--|
G|------------0----------2--3----------3---3----3--2---1---3---2---0-0----0--|
D|--3----2-----------3---2-----------------5---------------5-----------------|
A|--5----3----3------3-------------------------------------------------------|
E|---------------------------------------------------------------------------|
   the land that's free let us all be grateful for a land so fair as we raise 
e|---------------------------------------------------------------------------|
B|--1----1-------------------------------------------------------------------|
G|--0-------0----------------0-------------------------0-------0---2---------|
D|----------0--3--2--0--2----2------3----2---0-2-0---------3-------1---------|
A|-------------3--3-----------------3----3-----3---3-------3-----------------|
E|---------------------------------------------------------------------------|
   our voices in  a solemn prayer  God bless america land that i love
e|---------------------------------------------------------------------------|
B|---------------------------------------------------------------------------|
G|---0----2--3-------3---2-----------------0----2-----0--------0-------------|
D|---2----2--0---0---3---3-----------3-----2----0-----0---3----2-----3---2--3|
A|-----------------------------3--------------------------5----------5---3--3|
E|---------------------------------------------------------------------------|
   stand beside her and guide her through the night with the light from above
e|---------------------------------------------------------------------------|
B|----------------------------------------------------1----------1---3---1---|
G|------------0-----------0----2------0---2---3------------------------------|
D|---2---3------------3-------------------------------3-----3----3---3---3---|
A|----------------3---3------------3-------------3---------------------------|
E|----------------3----------------3-------------3---------------------------|
   from the mountains to the prairies to the oceans white with foam God bless
e|---------------------------------------------------------------------------|
B|-------------------------1---3----1----------------------------------------|
G|-3-2-0----3---2----0------------------3-2-0---3---2-----0------------------|
D|-3-3-2-3--0---3----2-----3---3----3---3-3-2-3-0---3-----2-----3------------|
A|-------3------------------------------------3-----------------3------------|
E|---------------------------------------------------------------------------|
   america my home sweet home God bless america my home sweet home             
Submit corrections

↑ Back to top | Tablatures and chords for acoustic guitar and electric guitar, ukulele, drums are parodies/interpretations of the original songs. You may use it for private study, scholarship, research or language learning purposes only