» » »

Iron Maiden - Wasting Love Bass

Artists:  A B C D E F G H I J K L M N O P Q R S T U V W X Y Z # 

Wasting Love Bass

(ver. 1) Click to play this song!
Iron Maiden
 Rating:
2.8/5 (25 votes)

 Wasting Love lessons Tabs too difficult? Try these video lessons and learn fast
 
                Tuning:E,A,D,G

Intro:0:00
G|-------------------------------------|
D|-2-22--------------------------------|
A|-------3-33--5-55--5-5-5-5-5-5-3-2---|
E|-----------------------------------3-|

G|-----------------------------------|
D|-2-22------------------------------|
A|-------3-33--5-55--5-3-2-0-2-0-----| x2
E|-------------------------------3-2-|

G|-------------------------|
D|-2-22--------------------|
A|-------3-33--5-55--00-22-|
E|-------------------------|

(0:32)
G|-9-12-9-7-9-7~-----7-------|
D|--------------------9-7----|
A|------------------------7~-|
E|---------------------------|

Verse:0:41
G|--------------------------------------------------|
D|--------------------------------------------------|
A|---------------------------------2-3-2------------| x2
E|-0~----0~----0~----0~----5~----5-------3-0~----0~-|

Chorus:1:40
G|-------------------------|
D|-2-22--------------------|
A|-------3-33--5-55--33-55-|
E|-------------------------|

G|-----------------------------|
D|-2-22------------------------|
A|-------3-33--5-55--0000-2222-|
E|-----------------------------|

G|-------------------------|
D|-2-22--------------------|
A|-------3-33--5-55--33-55-|
E|-------------------------|

G|---------------------|
D|-2-22----------------|
A|-------3-33--5-55--0-|
E|---------------------|

(2:06)
G|---------------------------------|
D|-2-0-------------2-0-------------|
A|-----3-2-------------3-2---------| x2
E|---------3-2-0-0---------3-2-0-0-|

Verse:2:20
G|--------------------------------------------------|
D|--------------------------------------------------|
A|---------------------------------2-3-2------------| 
E|-0~----0~----0~----0~----5~----5-------3-0~----0~-|

G|----------------------------|
D|----------------------------|
A|----------------------------| 
E|-0~----0~----0~----0~----5~-|

Chorus:3:00
G|-------------------------|
D|-2-22--------------------|
A|-------3-33--5-55--33-55-|
E|-------------------------|

G|-----------------------------|
D|-2-22------------------------|
A|-------3-33--5-55--0000-2222-|
E|-----------------------------|

G|-------------------------|
D|-2-22--------------------|
A|-------3-33--5-55--33-55-|
E|-------------------------|

G|---------------------|
D|-2-22----------------|
A|-------3-33--5-55--0-|
E|---------------------|

(3:27)
G|---------------------------------|
D|-2-0-------------2-0-------------|
A|-----3-2-------------3-2---------| x2
E|---------3-2-0-0---------3-2-0-0-|

Interlude:3:40
G|-------------------------------------|
D|-2-22--------------------------------|
A|-------3-33--5-55--5-5-5-5-5-5-3-2---|
E|-----------------------------------3-|

G|-----------------------------------|
D|-2-22------------------------------|
A|-------3-33--5-55--5-3-2-0-2-0-----| x2
E|-------------------------------3-2-|

G|-------------------------|
D|-2-22--------------------|
A|-------3-33--5-55--33-55-|
E|-------------------------|

Before Solo:4:05
G|-----0-----0-7-|
D|---4--4---4-4--|
A|--2-2--23------| x4
E|-0-------------|

During Solo:4:18
G|------------------------------|
D|------------------------------|
A|------------------------------| x4
E|-00000000-22---33333333-55-33-|

Chorus:4:43
G|-------------------------|
D|-2-22--------------------|
A|-------3-33--5-55--33-55-|
E|-------------------------|

G|-----------------------------|
D|-2-22------------------------|
A|-------3-33--5-55--0000-2222-|
E|-----------------------------|

G|-------------------------|
D|-2-22--------------------|
A|-------3-33--5-55--33-55-|
E|-------------------------|

G|---------------------|
D|-2-22----------------|
A|-------3-33--5-55--0-|
E|---------------------|
Repeat Chorus

Last Riff:5:35
G-----------------|
D|-0--------------|
A|---3-2----------|
E|-------3-2-0-0~-|            
Submit corrections


        Wasting Love lessons Hard to play? Try these video lessons and learn fast Wasting Love lessons
        
↑ Back to top | Tablatures and chords for acoustic guitar and electric guitar, ukulele, drums are parodies/interpretations of the original songs. You may use it for private study, scholarship, research or language learning purposes only