» » »

Iron Maiden - The Man Who Would Be King Tabs

Artists:  A B C D E F G H I J K L M N O P Q R S T U V W X Y Z # 

The Man Who Would Be King Tabs

(ver. 1) Click to play this song!
Iron Maiden
 Rating:
3.1/5 (30 votes)

 The Man Who Would Be King lessons Tabs too difficult? Try these video lessons and learn fast
 
                e|--------------------------10-----------------------------------------------|
B|-----------10---12---13--------12---13-------------------------------------|
G|-----------------------------------------12--------------------------------|
D|---------------------------------------------------------------------------|
A|---------------------------------------------------------------------------|
E|---------------------------------------------------------------------------|

e|--------------------------10-----------------------------------------------|
B|-----------10---12---13--------12--------10--------------------------------|
G|------------------------------------12-------------------------------------|
D|---------------------------------------------------------------------------|
A|---------------------------------------------------------------------------|
E|---------------------------------------------------------------------------|
                                                                                    X2
e|--------------------------10---12---13--------10---------------------------|
B|-----------10---12---13------------------13--------12----------------------|
G|---------------------------------------------------------------------------|
D|---------------------------------------------------------------------------|
A|---------------------------------------------------------------------------|
E|---------------------------------------------------------------------------|

e|-----------13---12-H-13-P-12-P-10---8-H-10-P-8-----------------------------|
B|-------------------------------------------------12---8-H-10-P-10----------|
G|--------------------------------------------------------------------9------|
D|---------------------------------------------------------------------------|
A|---------------------------------------------------------------------------|
E|---------------------------------------------------------------------------|
            
Submit corrections


        The Man Who Would Be King lessons Hard to play? Try these video lessons and learn fast The Man Who Would Be King lessons
        
↑ Back to top | Tablatures and chords for acoustic guitar and electric guitar, ukulele, drums are parodies/interpretations of the original songs. You may use it for private study, scholarship, research or language learning purposes only