» » »

Iron Maiden - The Ides Of March Tabs

Artists:  A B C D E F G H I J K L M N O P Q R S T U V W X Y Z # 

The Ides Of March Tabs

(ver. 1) Click to play this song!
Iron Maiden
 Rating:
2.1/5 (25 votes)

 The Ides Of March  lessons Tabs too difficult? Try these video lessons and learn fast
 
                Guitar #1:

Adrian Smith

          Intro                                                            
     S    H.            Q        H.           E  E      H.           Q     
E||----|---------------------|----------------------|---------------------|
B||----|---------------------|----------------------|---------------------|
G||----|---------------------|----------------------|---------------------|
D||----|--9------------11----|--12------------------|---------------------|
A||----|--7-------------9----|--10------------7--9--|--10------------9----|
E||----|---------------------|----------------5--7--|---8------------7----|


  H.           S S E     H.           Q        H.            E   E   
----------------------|--------------------|------------------------|
----------------------|--------------------|------------------------|
----------------------|--------------------|------------------------|
---------------5-4----|--7------------9----|--11------------12--11--|
--7----------------7--|--5------------7----|---9------------10---9--|
--5-------------------|--------------------|------------------------|


                       Riff A                                         
  H.           Q       H.             Q        H.              Q      
--------------------|-----------------------|------------------------|
--------------------|-----------------------|------------------------|
--------------------|---------------5g7b----|--L------------7g11b----|
--9------------7----|--9--------------------|------------------------|
--7------------5----|--7--------------------|------------------------|
--------------------|-----------------------|------------------------|


   H.            E   E      H.             Q          H.             S  S E   
------------------------|-------------------------|--------------------------|
------------------------|-------------------------|--------------------------|
---L------------14--16--|--16b------------16br----|--14~------------12-11-9--|
------------------------|-------------------------|--------------------------|
------------------------|-------------------------|--------------------------|
------------------------|-------------------------|--------------------------|


  H.              Q        H.            Q         H.              Q      
------------------------|-----------------------|------------------------|
------------------------|-----------------------|------------------------|
--7~------------7g9b----|--L------------11br----|--9~------------5g7b----|
------------------------|-----------------------|------------------------|
------------------------|-----------------------|------------------------|
------------------------|-----------------------|------------------------|


  Solo 1 Adrian Smith                                               
  H.                   Q         Q      S  S  S   S  Q      E   E   
-----------------------------|-------------------------------------|
----------------------15b----|--15b----15-12-----------------------|
--L--------------------------|---------------14b-12-14b----12\-----|
-----------------------------|-------------------------------------|
-----------------------------|-------------------------------------|
-----------------------------|-------------------------------------|


  S  S  Q      S.T  S   E     S  S   S  E    
-------15b----15-------------12-------------|
----12-------------15b-15pb-----15p-12-15b--|
--------------------------------------------|
--------------------------------------------|
--------------------------------------------|
--------------------------------------------|


  S  S  S   S  S  S   S  S  S   S   S  S  S   S   S  S  
----12-------------------------------------------------|
--L----15p-12------------------------------------------|
--------------15-14p-12----12h-14p-12----12h-14p-12----|
------------------------14------------14------------14-|
-------------------------------------------------------|
-------------------------------------------------------|


   S  S   S  S  S  S   S  S  H             S   S  S  S  H.             
---------------------------------------|--15p-14----------------------|
---------------------------------------|---------15----17b------------|
--12-----------------------------------|------------14----------------|
-----14p-12----12----------------------|------------------------------|
------------15----15p-12-10S-5~--------|------------------------------|
---------------------------------------|------------------------------|


   S   S  S  S  E    E   H         
--15p-14-------17b--17~--L--------|
---------15-----------------------|
------------14--------------------|
----------------------------------|
----------------------------------|
----------------------------------|


        |---3--|       |--3--|  |---3--|  |---3--|  |---3--|   |---3--|  
   E    S  S   S  E    S  S  S  S   S  S  S  S   S  S   S  S   S   S  S  
-------12-------------12-12-12-15p-12----12-----------------------------|
--15b-----15p-12-15b------------------15----15p-12-15p-12---------------|
----------------------------------------------------------15p-14p-12----|
---------------------------------------------------------------------14-|
------------------------------------------------------------------------|
------------------------------------------------------------------------|


   Q      S  S  S  S  S  S  E   Q      
--------------------------------------|
--------------------------------------|
--14~----12---------------------------|
------------14-12---------------------|
------------------14-13-12------------|
---------------------------15--12~----|


  Solo 2 Dave Murray                           
  E                  S S E  S S E  S S E   E   
----------------------------------------------|
----------------------------------------------|
----------------------------------------------|
--9------------------9-9-9--9-9-9--9-9-9--11--|
--7------------------7-7-7--7-7-7--7-7-7---9--|
----------------------------------------------|


   E   S  S  E   S  S  E   S  S E  E      E   S  S  E   S  S  E   S  S E  E   
--------------------------------------|--------------------------------------|
--------------------------------------|--------------------------------------|
--------------------------------------|--------------------------------------|
--12--12-12-12--12-12-12--12-12-------|--------------------------------------|
--10--10-10-10--10-10-10--10-10-7--9--|--10--10-10-10--10-10-10--10-10-9--9--|
--------------------------------5--7--|---8---8--8--8---8--8--8---8--8-7--7--|


  E  S S E  S S E  E   S  S E     E  S S E  S S E  S S E  E   
-------------------------------|-----------------------------|
-------------------------------|-----------------------------|
-------------------------------|-----------------------------|
----------------------12-11-9--|--7--7-7-7--7-7-7--7-7-7--9--|
--7--7-7-7--7-7-7--7--10--9-7--|--5--5-5-5--5-5-5--5-5-5--7--|
--5--5-5-5--5-5-5--5-----------|-----------------------------|


   E   S  S  E   S  S  E   S  S  E   E     E  S S E  S S E  S S E  E   
----------------------------------------|-----------------------------|
----------------------------------------|-----------------------------|
----------------------------------------|-----------------------------|
--11--11-11-11--11-11-11--11-11-12--11--|--9--9-9-9--9-9-9--9-9-7--7--|
---9---9--9--9---9--9--9---9--9-10---9--|--7--7-7-7--7-7-7--7-7-5--5--|
----------------------------------------|-----------------------------|


                                Outro                                           
  E  S S E  S S Q      Q        H.              Q         H.            E   E   
-----------------------------|------------------------|------------------------|
-----------------------------|------------------------|------------------------|
---------------------5g7b----|--L------------7g11b----|---L------------14--16--|
--9--9-9-9--9-9-9------------|------------------------|------------------------|
--7--7-7-7--7-7-7------------|------------------------|------------------------|
-----------------------------|------------------------|------------------------|


   H.             Q          H.             S  S E     H.              Q      
-------------------------|--------------------------|------------------------|
-------------------------|--------------------------|------------------------|
--16b------------16br----|--14~------------12-11-9--|--7~------------7g9b----|
-------------------------|--------------------------|------------------------|
-------------------------|--------------------------|------------------------|
-------------------------|--------------------------|------------------------|


  H.            Q         H.              Q        H        H         
-----------------------|------------------------|--------------------|
-----------------------|------------------------|--------------------|
--L------------11br----|--9~------------5g7b----|--L--------L--------|
-----------------------|------------------------|--------------------|
-----------------------|------------------------|--------------------|
-----------------------|------------------------|--------------------|


  W                  
-------------------||
-------------------||
--L----------------||
-------------------||
-------------------||
-------------------||




Guitar #2:

Dave Murray

          Intro                                                            
     S    H.            Q        H.           E  E      H.           Q     
E||----|---------------------|----------------------|---------------------|
B||----|---------------------|----------------------|---------------------|
G||----|---------------------|----------------------|---------------------|
D||----|--9------------11----|--12------------------|---------------------|
A||----|--7-------------9----|--10------------7--9--|--10------------9----|
E||----|---------------------|----------------5--7--|---8------------7----|


  H.           S S E     H.           Q        H.            E   E   
----------------------|--------------------|------------------------|
----------------------|--------------------|------------------------|
----------------------|--------------------|------------------------|
---------------5-4----|--7------------9----|--11------------12--11--|
--7----------------7--|--5------------7----|---9------------10---9--|
--5-------------------|--------------------|------------------------|


                       Riff A                                         
  H.           Q       H.             Q        H.              Q      
--------------------|-----------------------|------------------------|
--------------------|---------------5g7b----|--L------------7g10b----|
--------------------|-----------------------|------------------------|
--9------------7----|--9--------------------|------------------------|
--7------------5----|--7--------------------|------------------------|
--------------------|-----------------------|------------------------|


   H.            E   E      H.             Q          H.             S  S E   
------------------------|-------------------------|-----------------10--8-7--|
---L------------13--15--|--15b------------15br----|--13~------------12-10-8--|
------------------------|-------------------------|--------------------------|
------------------------|-------------------------|--------------------------|
------------------------|-------------------------|--------------------------|
------------------------|-------------------------|--------------------------|


  H.              Q        H.            Q         H.              Q      
--5---------------------|-----------------------|------------------------|
--7~------------5g8b----|--L------------10br----|--8~------------5g7b----|
------------------------|-----------------------|------------------------|
------------------------|-----------------------|------------------------|
------------------------|-----------------------|------------------------|
------------------------|-----------------------|------------------------|


  Solo 1 Adrian Smith                                      
  H.                  Q       E  S S E  S S E  S S E   E   
---------------------------|------------------------------|
--L------------------------|------------------------------|
---------------------------|------------------------------|
---------------------------|--9--9-9-9--9-9-9--9-9-9--11--|
---------------------------|--7--7-7-7--7-7-7--7-7-7---9--|
---------------------------|------------------------------|


   E   S  S  E   S  S  E   S  S E  E      E   S  S  E   S  S  E   S  S E  E   
--------------------------------------|--------------------------------------|
--------------------------------------|--------------------------------------|
--------------------------------------|--------------------------------------|
--12--12-12-12--12-12-12--12-12-------|--------------------------------------|
--10--10-10-10--10-10-10--10-10-7--9--|--10--10-10-10--10-10-10--10-10-9--9--|
--------------------------------5--7--|---8---8--8--8---8--8--8---8--8-7--7--|


  E  S S E  S S E  E   S  S E     E  S S E  S S E  S S E  E   
-------------------------------|-----------------------------|
-------------------------------|-----------------------------|
-------------------------------|-----------------------------|
----------------------12-11-9--|--7--7-7-7--7-7-7--7-7-7--9--|
--7--7-7-7--7-7-7--7--10--9-7--|--5--5-5-5--5-5-5--5-5-5--7--|
--5--5-5-5--5-5-5--5-----------|-----------------------------|


   E   S  S  E   S  S  E   S  S  E   E     E  S S E  S S E  S S E  E   
----------------------------------------|-----------------------------|
----------------------------------------|-----------------------------|
----------------------------------------|-----------------------------|
--11--11-11-11--11-11-11--11-11-12--11--|--9--9-9-9--9-9-9--9-9-7--7--|
---9---9--9--9---9--9--9---9--9-10---9--|--7--7-7-7--7-7-7--7-7-5--5--|
----------------------------------------|-----------------------------|


  E  S S E  S S E  S S Q     
----------------------------|
----------------------------|
----------------------------|
--9--9-9-9--9-9-9--9-9-7----|
--7--7-7-7--7-7-7--7-7-5----|
----------------------------|


   Solo 2 Dave Murray                                                           
   T                  T   T  T  T   T   T  T  T   T   T  T  T   T   T  T  T   T 
--------------------------------------------------------------------------------
--12h----------------15p-12----12h-15p-12----12h-15p-12----12h-15p-12----12h-15p
----------------------------14------------14------------14------------14--------
--------------------------------------------------------------------------------
--------------------------------------------------------------------------------
--------------------------------------------------------------------------------


   Q.       Q.       T   T   T   T   T   T   T   T  
---------------------------------------------------|
--17b------17b------15h-17p-15h-17p-15h-17p-15h-17-|
---------------------------------------------------|
---------------------------------------------------|
---------------------------------------------------|
---------------------------------------------------|


   |---3--|   |---3--|   |---3---|  |---3--|   |--3--|  |--3--|  |--3--|        
   S   S  S   S  S   S   S   S   S  S  S   S   S  S  S  S  S  S  S  S  S  S   S 
--------------------------------------------------------------------------------
--15p-14------------------------------------------------------------------------
---------16p-14-12h-14p-12h-14p-12----12h-14p-12----12-11----12-11--------------
-----------------------------------14------------14-------14-------14--L--------
-------------------------------------------------------------------------12h-14-
--------------------------------------------------------------------------------


   S   S  S  S   S  S   S   S  S   S  S   S  S  S  E    
--------------------------------------------------15b--|
-------------------------------------------------------|
------------11h-12--------------------------12---------|
--11h-12-14--------14p-12h-14--------12h-14----14------|
------------------------------12h-14-------------------|
-------------------------------------------------------|


  Q     Q.       E    E    E       E    E    Q      S   S   S   S  S  S  S  S  
--L----15b------15b--15b--15b--|--17b--17b--17b----15p-14h-15p-14-12-14-12-10-|
-------------------------------|----------------------------------------------|
-------------------------------|----------------------------------------------|
-------------------------------|----------------------------------------------|
-------------------------------|----------------------------------------------|
-------------------------------|----------------------------------------------|


   T         T         T         T         T         T         T         T      
   |---3--|  |---3--|  |---3--|  |---3--|  |---3--|  |---3--|  |---3--|  |---3--
   S  S   S  S  S   S  S  S   S  S  S   S  S  S   S  S  S   S  S  S   S  S  S   
--19-15p-12-19-15p-12-19-15p-12-19-15p-12-19-15p-12-19-15p-12-17-14p-10-17-14p-1
--------------------------------------------------------------------------------
--------------------------------------------------------------------------------
--------------------------------------------------------------------------------
--------------------------------------------------------------------------------
--------------------------------------------------------------------------------


   T         T         T         T         T         T         T         T      
   |---3--|  |---3--|  |---3--|  |---3--|  |---3--|  |---3--|  |---3--|  |---3--
   S  S   S  S  S   S  S  S   S  S  S   S  S  S   S  S  S   S  S  S   S  S  S   
--19-15p-12-19-15p-12-19-15p-12-19-15p-12-19-15p-12-19-15p-12-17-14p-10-17-14p-1
--------------------------------------------------------------------------------
--------------------------------------------------------------------------------
--------------------------------------------------------------------------------
--------------------------------------------------------------------------------
--------------------------------------------------------------------------------


   Outro                                                                     
   H.              Q         H.            E   E      H.             Q       
--12---------------------|------------------------|-------------------------|
----------------7g10b----|---L------------13--15--|--15b------------15br----|
-------------------------|------------------------|-------------------------|
-------------------------|------------------------|-------------------------|
-------------------------|------------------------|-------------------------|
-------------------------|------------------------|-------------------------|


   H.             S  S E     H.              Q        H.            Q       
-----------------10--8-7--|--5---------------------|-----------------------|
--13~------------12-10-8--|--7~------------5g8b----|--L------------10br----|
--------------------------|------------------------|-----------------------|
--------------------------|------------------------|-----------------------|
--------------------------|------------------------|-----------------------|
--------------------------|------------------------|-----------------------|


  H.              Q        H        H           W                  
------------------------|--------------------|-------------------||
--8~------------5g7b----|--L--------L--------|--L----------------||
------------------------|--------------------|-------------------||
------------------------|--------------------|-------------------||
------------------------|--------------------|-------------------||
------------------------|--------------------|-------------------||




Guitar #3:

Janick Gers

          Intro                                                            
     S    H.            Q        H.           E  E      H.           Q     
E||----|---------------------|----------------------|---------------------|
B||----|---------------------|----------------------|---------------------|
G||----|--9------------11----|--12------------------|---------------------|
D||----|--9------------11----|--12------------7--9--|--10------------9----|
A||----|--7-------------9----|--10------------7--9--|--10------------9----|
E||----|---------------------|----------------5--7--|---8------------7----|


  H.            S  S E     H.           Q        H.            E   E   
------------------------|--------------------|------------------------|
------------------------|--------------------|------------------------|
---------------12-11-9--|--7------------9----|--11------------12--11--|
--7------------12-11-9--|--7------------9----|--11------------12--11--|
--7------------10--9-7--|--5------------7----|---9------------10---9--|
--5---------------------|--------------------|------------------------|


                       Riff A                                   
  H.           Q       H.           Q       H.            Q     
--------------------|--------------------|---------------------|
--------------------|--------------------|---------------------|
--9------------7----|--9------------7----|--9------------11----|
--9------------7----|--9------------7----|--9------------11----|
--7------------5----|--7------------5----|--7-------------9----|
--------------------|--------------------|---------------------|


   H.           E  E      H.           Q       H.            S  S E   
----------------------|---------------------|------------------------|
----------------------|---------------------|------------------------|
--12------------------|---------------------|---------------12-11-9--|
--12------------7--9--|--10------------9----|--7------------12-11-9--|
--10------------7--9--|--10------------9----|--7------------10--9-7--|
----------------5--7--|---8------------7----|--5---------------------|


  H.           Q        H.            E   E     H.           Q     
--------------------|------------------------|--------------------|
--------------------|------------------------|--------------------|
--7------------9----|--11------------12--11--|--9------------7----|
--7------------9----|--11------------12--11--|--9------------7----|
--5------------7----|---9------------10---9--|--7------------5----|
--------------------|------------------------|--------------------|


  Solo 1 Adrian Smith                                            
                                 |-3-|    |-3-|    |-3-|         
  H.                  Q       E  S S S E  S S S E  S S S E   E   
---------------------------|------------------------------------|
---------------------------|------------------------------------|
--9-------------------7----|------------------------------------|
--9-------------------7----|--9--------9--------9--------9--11--|
--7-------------------5----|--7--7-7-7-7--7-7-7-7--7-7-7-7---9--|
---------------------------|------------------------------------|


       |--3--|      |--3--|      |--3--|        
   E   S  S  S  E   S  S  S  E   S  S  S E  E   
-----------------------------------------------|
-----------------------------------------------|
-----------------------------------------------|
--12-----------12-----------12-----------------|
--10--10-10-10-10--10-10-10-10--10-10-10-7--9--|
-----------------------------------------5--7--|


      |-3-|     |-3-|     |-3-|             |-3-|    |-3-|                 
   E  S S S  E  S S S  E  S S S E  E     E  S S S E  S S S E  E   S  S E   
--------------------------------------|-----------------------------------|
--------------------------------------|-----------------------------------|
--------------------------------------|-----------------------------------|
--------------------------------------|--------------------------12-11-9--|
--10--------10--------10--------9--9--|--7--------7--------7--7--10--9-7--|
---8--8-8-8--8--8-8-8--8--8-8-8-7--7--|--5--5-5-5-5--5-5-5-5--5-----------|


     |-3-|    |-3-|    |-3-|              |-3-|     |-3-|     |-3-|          
  E  S S S E  S S S E  S S S E  E      E  S S S  E  S S S  E  S S S  E   E   
-----------------------------------|----------------------------------------|
-----------------------------------|----------------------------------------|
-----------------------------------|----------------------------------------|
--7--------7--------7--------7--9--|--11--------11--------11--------12--11--|
--5--5-5-5-5--5-5-5-5--5-5-5-5--7--|---9--9-9-9--9--9-9-9--9--9-9-9-10---9--|
-----------------------------------|----------------------------------------|


     |-3-|    |-3-|    |-3-|             |-3-|    |-3-|    |-3-|        
  E  S S S E  S S S E  S S S E  E     E  S S S E  S S S E  S S S E  E   
-----------------------------------|-----------------------------------|
-----------------------------------|-----------------------------------|
-----------------------------------|-----------------------------------|
--9--------9--------9--------7--7--|--9--------9--------9--------7--7--|
--7--7-7-7-7--7-7-7-7--7-7-7-5--5--|--7--7-7-7-7--7-7-7-7--7-7-7-5--5--|
-----------------------------------|-----------------------------------|


  Solo 2 Dave Murray                                 
                     |-3-|    |-3-|    |-3-|         
  E                  S S S E  S S S E  S S S E   E   
----------------------------------------------------|
----------------------------------------------------|
----------------------------------------------------|
--9------------------------9--------9--------9--11--|
--7------------------7-7-7-7--7-7-7-7--7-7-7-7---9--|
----------------------------------------------------|


       |--3--|      |--3--|      |--3--|        
   E   S  S  S  E   S  S  S  E   S  S  S E  E   
-----------------------------------------------|
-----------------------------------------------|
-----------------------------------------------|
--12-----------12-----------12-----------------|
--10--10-10-10-10--10-10-10-10--10-10-10-7--9--|
-----------------------------------------5--7--|


      |-3-|     |-3-|     |-3-|             |-3-|    |-3-|                 
   E  S S S  E  S S S  E  S S S E  E     E  S S S E  S S S E  E   S  S E   
--------------------------------------|-----------------------------------|
--------------------------------------|-----------------------------------|
--------------------------------------|-----------------------------------|
--------------------------------------|--------------------------12-11-9--|
--10--------10--------10--------9--9--|--7--------7--------7--7--10--9-7--|
---8--8-8-8--8--8-8-8--8--8-8-8-7--7--|--5--5-5-5-5--5-5-5-5--5-----------|


     |-3-|    |-3-|    |-3-|              |-3-|     |-3-|     |-3-|          
  E  S S S E  S S S E  S S S E  E      E  S S S  E  S S S  E  S S S  E   E   
-----------------------------------|----------------------------------------|
-----------------------------------|----------------------------------------|
-----------------------------------|----------------------------------------|
--7--------7--------7--------7--9--|--11--------11--------11--------12--11--|
--5--5-5-5-5--5-5-5-5--5-5-5-5--7--|---9--9-9-9--9--9-9-9--9--9-9-9-10---9--|
-----------------------------------|----------------------------------------|


     |-3-|    |-3-|    |-3-|             |-3-|    |-3-|    |-3-|       
  E  S S S E  S S S E  S S S E  E     E  S S S E  S S S E  S S S Q     
-----------------------------------|----------------------------------|
-----------------------------------|----------------------------------|
-----------------------------------|-----------------------------7----|
--9--------9--------9--------7--7--|--9--------9--------9--------7----|
--7--7-7-7-7--7-7-7-7--7-7-7-5--5--|--7--7-7-7-7--7-7-7-7--7-7-7-5----|
-----------------------------------|----------------------------------|


  Outro                                                            
  H.            Q        H.           E  E      H.           Q     
---------------------|----------------------|---------------------|
---------------------|----------------------|---------------------|
--9------------11----|--12------------------|---------------------|
--9------------11----|--12------------7--9--|--10------------9----|
--7-------------9----|--10------------7--9--|--10------------9----|
---------------------|----------------5--7--|---8------------7----|


  H.            S  S E     H.           Q        H.            E   E   
------------------------|--------------------|------------------------|
------------------------|--------------------|------------------------|
---------------12-11-9--|--7------------9----|--11------------12--11--|
--7------------12-11-9--|--7------------9----|--11------------12--11--|
--7------------10--9-7--|--5------------7----|---9------------10---9--|
--5---------------------|--------------------|------------------------|


  H.           Q       H        H           W                  
--------------------|--------------------|-------------------||
--------------------|--------------------|-------------------||
--9------------7----|--9--------L--------|--L----------------||
--9------------7----|--9--------L--------|--L----------------||
--7------------5----|--7--------L--------|--L----------------||
--------------------|--------------------|-------------------||
            
Submit corrections


        The Ides Of March  lessons Hard to play? Try these video lessons and learn fast The Ides Of March  lessons
        
↑ Back to top | Tablatures and chords for acoustic guitar and electric guitar, ukulele, drums are parodies/interpretations of the original songs. You may use it for private study, scholarship, research or language learning purposes only