» » »

Iron Maiden - The Book Of Souls Tabs

Artists:  A B C D E F G H I J K L M N O P Q R S T U V W X Y Z # 

The Book Of Souls Tabs

(ver. 1) Click to play this song!
Iron Maiden
 Rating:
2.6/5 (23 votes)

 The Book Of Souls  lessons Tabs too difficult? Try these video lessons and learn fast
 
                Guitar I: (E A D G B E)

Legend:

p (pull-off)
h (hammer-on)
m (palm mute)

Guitar I: (Play this part once and repeat twice.)

e|--7h8p7--5---7------5h7p5--3---5-----3h5p3--2---3------3p2-----------------|
B|---------------------------------------------------------------------------|
G|---------------------------------------------------------------------------|
D|---------------------------------------------------------------------------|
A|---------------------------------------------------------------------------|
E|---------------------------------------------------------------------------| 2x

e|--7h8p7--5---7------5h7p5--3---5-----3h5p3--2---3------2h3p2--0------------|
B|---------------------------------------------------------------------------|
G|---------------------------------------------------------------------------|
D|---------------------------------------------------------------------------|
A|---------------------------------------------------------------------------|
E|---------------------------------------------------------------------------|

e|---------------------------------------------------------------------------|
B|---------------------------------------------------------------------------|
G|---------------------------------------------------------------------------|
D|---------2h3p2---0--2----------------------------------2h3p2---0--2--------|
A|-------------------------2h3p2--0--2--0------------------------------------|
E|--0--0-----------------------------------3--2---0--0-----------------------|
    m  m   m m m   m  m    m m m  m  m  m  m  m   m  m   m m m   m  m

e|---------------------------------------------------------------------------|
B|---------------------------------------------------------------------------|
G|---------------------------------------------------------------------------|
D|---------------------------------------------------------------------------|
A|--2h3p2---0----2-----------------------------------------------------------|
E|---------------------------------------------------------------------------|
    m m m   m    m

Play these two parts below and repeat them twice:

e|---------------------------------------------------------------------------|
B|---------------------------------------------------------------------------|
G|---------------------------------------------------------------------------|
D|------2h3p2---0--2-------------------------------2h3p2---0--2--------------|
A|----------------------2h3p2--0--2--0---------------------------------------|
E|--0-----------------------------------3--2---0-----------------------------|
    m   m m m   m  m    m m m  m  m  m  m  m   m   m m m   m  m

e|---------------------------------------------------------------------------|
B|---------------------------------------------------------------------------|
G|---------------------------------------------------------------------------|
D|---------------------------------------------------------------------------|
A|--2h3p2---0----2-----------------------------------------------------------|
E|---------------------------------------------------------------------------| 2x
    m m m   m    m
            
Submit corrections


        The Book Of Souls  lessons Hard to play? Try these video lessons and learn fast The Book Of Souls  lessons
        
↑ Back to top | Tablatures and chords for acoustic guitar and electric guitar, ukulele, drums are parodies/interpretations of the original songs. You may use it for private study, scholarship, research or language learning purposes only