» » »

Iron Maiden - Tears Of A Clown Tabs

Artists:  A B C D E F G H I J K L M N O P Q R S T U V W X Y Z # 

Tears Of A Clown Tabs

(ver. 1) Click to play this song!
Iron Maiden
 Rating:
4.2/5 (30 votes)

 Tears Of A Clown  lessons Tabs too difficult? Try these video lessons and learn fast
 
                [Intro]

(listen for strumming rhythm)

e|-----------------------------------------|
B|-----------------------------------------|
G|-----5-------7--5------5-------7---5-7---|
D|-7---5---3---7--5--7---5---3---7---5-7---|
A|-7---3---3---5--3--7---3---3---5---3-5---|
E|-5-------1---------5-------1-------------|

e|----------------------------------------------------------------------------------------------------|
B|----------------------------------------------------------------------------------------------------|
G|----------------------------------------------------------------------------------------------------|
D|-------------------------------------------5-7-------------------------------------------5-7---7----|
A|-----0-3-5------5--------5--------5----5-7---------0-3-5------5--------5--------5----5-7-------7----|
E|-3-5--------3-3---3--3-3---3--3-3---3------------5--------3-3---3--3-3---3--3-3---3------------5----|            
Submit corrections


        Tears Of A Clown  lessons Hard to play? Try these video lessons and learn fast Tears Of A Clown  lessons
        
↑ Back to top | Tablatures and chords for acoustic guitar and electric guitar, ukulele, drums are parodies/interpretations of the original songs. You may use it for private study, scholarship, research or language learning purposes only